  0
SECTION
  2
HEADER
  9
$ACADVER
  1
AC1009
  9
$EXTMIN
 10
0.0
 20
0.0
 30
0.0
  9
$EXTMAX
 10
1000.0
 20
1000.0
 30
0.0
  9
$FILLMODE
 70
 0
  9
$SPLFRAME
 70
 1
  0
ENDSEC
  0
SECTION
  2
TABLES
  0
TABLE
  2
LAYER
 70
1
  0
LAYER
  2
0
 70
     0
 62
     7
  6
CONTINUOUS
  0
ENDTAB
  0
ENDSEC
  0
SECTION
  2
ENTITIES
  0
POLYLINE
  8
0
 62
     0
 66
     1
 10
0
 20
0
 30
0.0
 40
0.283465
 41
0.283465
  0
VERTEX
  8
0
 10
2.04725
 20
8.26796
 30
0.0
 40
0.00393701
 41
0.00393701
  0
VERTEX
  8
0
 10
2.04725
 20
0.393935
 30
0.0
 40
0.00393701
 41
0.00393701
  0
SEQEND
 8
0
  0
POLYLINE
  8
0
 62
     0
 66
     1
 10
0
 20
0
 30
0.0
 40
0.283465
 41
0.283465
  0
VERTEX
  8
0
 10
2.04725
 20
8.26796
 30
0.0
 40
0.00393701
 41
0.00393701
  0
VERTEX
  8
0
 10
9.92128
 20
8.26796
 30
0.0
 40
0.00393701
 41
0.00393701
  0
SEQEND
 8
0
  0
POLYLINE
  8
0
 62
     0
 66
     1
 10
0
 20
0
 30
0.0
 40
0.283465
 41
0.283465
  0
VERTEX
  8
0
 10
9.92128
 20
8.26796
 30
0.0
 40
0.00393701
 41
0.00393701
  0
VERTEX
  8
0
 10
9.92128
 20
0.393935
 30
0.0
 40
0.00393701
 41
0.00393701
  0
SEQEND
 8
0
  0
POLYLINE
  8
0
 62
     0
 66
     1
 10
0
 20
0
 30
0.0
 40
0.283465
 41
0.283465
  0
VERTEX
  8
0
 10
2.04725
 20
0.393935
 30
0.0
 40
0.00393701
 41
0.00393701
  0
VERTEX
  8
0
 10
9.92128
 20
0.393935
 30
0.0
 40
0.00393701
 41
0.00393701
  0
SEQEND
 8
0
  0
POLYLINE
  8
0
 62
     0
 66
     1
 10
0
 20
0
 30
0.0
 70
     1
 40
0
 41
0
  0
VERTEX
  8
0
 10
9.8425
 20
7.55931
 30
0.0
 40
0
 41
0
  0
VERTEX
  8
0
 10
9.84131
 20
7.45725
 30
0.0
 40
0
 41
0
  0
SEQEND
 8
0
  0
POLYLINE
  8
0
 62
     0
 66
     1
 10
0
 20
0
 30
0.0
 40
0.283465
 41
0.283465
  0
VERTEX
  8
0
 10
9.8425
 20
7.55931
 30
0.0
 40
0.00393701
 41
0.00393701
  0
VERTEX
  8
0
 10
9.84131
 20
7.45725
 30
0.0
 40
0.00393701
 41
0.00393701
  0
SEQEND
 8
0
  0
POLYLINE
  8
0
 62
     0
 66
     1
 10
0
 20
0
 30
0.0
 70
     1
 40
0
 41
0
  0
VERTEX
  8
0
 10
9.84131
 20
7.45725
 30
0.0
 40
0
 41
0
  0
VERTEX
  8
0
 10
9.83772
 20
7.35525
 30
0.0
 40
0
 41
0
  0
SEQEND
 8
0
  0
POLYLINE
  8
0
 62
     0
 66
     1
 10
0
 20
0
 30
0.0
 40
0.283465
 41
0.283465
  0
VERTEX
  8
0
 10
9.84131
 20
7.45725
 30
0.0
 40
0.00393701
 41
0.00393701
  0
VERTEX
  8
0
 10
9.83772
 20
7.35525
 30
0.0
 40
0.00393701
 41
0.00393701
  0
SEQEND
 8
0
  0
POLYLINE
  8
0
 62
     0
 66
     1
 10
0
 20
0
 30
0.0
 70
     1
 40
0
 41
0
  0
VERTEX
  8
0
 10
9.83772
 20
7.35525
 30
0.0
 40
0
 41
0
  0
VERTEX
  8
0
 10
9.83171
 20
7.25342
 30
0.0
 40
0
 41
0
  0
SEQEND
 8
0
  0
POLYLINE
  8
0
 62
     0
 66
     1
 10
0
 20
0
 30
0.0
 40
0.283465
 41
0.283465
  0
VERTEX
  8
0
 10
9.83772
 20
7.35525
 30
0.0
 40
0.00393701
 41
0.00393701
  0
VERTEX
  8
0
 10
9.83171
 20
7.25342
 30
0.0
 40
0.00393701
 41
0.00393701
  0
SEQEND
 8
0
  0
POLYLINE
  8
0
 62
     0
 66
     1
 10
0
 20
0
 30
0.0
 70
     1
 40
0
 41
0
  0
VERTEX
  8
0
 10
9.83171
 20
7.25342
 30
0.0
 40
0
 41
0
  0
VERTEX
  8
0
 10
9.82329
 20
7.15169
 30
0.0
 40
0
 41
0
  0
SEQEND
 8
0
  0
POLYLINE
  8
0
 62
     0
 66
     1
 10
0
 20
0
 30
0.0
 40
0.283465
 41
0.283465
  0
VERTEX
  8
0
 10
9.83171
 20
7.25342
 30
0.0
 40
0.00393701
 41
0.00393701
  0
VERTEX
  8
0
 10
9.82329
 20
7.15169
 30
0.0
 40
0.00393701
 41
0.00393701
  0
SEQEND
 8
0
  0
POLYLINE
  8
0
 62
     0
 66
     1
 10
0
 20
0
 30
0.0
 70
     1
 40
0
 41
0
  0
VERTEX
  8
0
 10
9.82329
 20
7.15169
 30
0.0
 40
0
 41
0
  0
VERTEX
  8
0
 10
9.8125
 20
7.05024
 30
0.0
 40
0
 41
0
  0
SEQEND
 8
0
  0
POLYLINE
  8
0
 62
     0
 66
     1
 10
0
 20
0
 30
0.0
 40
0.283465
 41
0.283465
  0
VERTEX
  8
0
 10
9.82329
 20
7.15169
 30
0.0
 40
0.00393701
 41
0.00393701
  0
VERTEX
  8
0
 10
9.8125
 20
7.05024
 30
0.0
 40
0.00393701
 41
0.00393701
  0
SEQEND
 8
0
  0
POLYLINE
  8
0
 62
     0
 66
     1
 10
0
 20
0
 30
0.0
 70
     1
 40
0
 41
0
  0
VERTEX
  8
0
 10
9.8125
 20
7.05024
 30
0.0
 40
0
 41
0
  0
VERTEX
  8
0
 10
9.79932
 20
6.94906
 30
0.0
 40
0
 41
0
  0
SEQEND
 8
0
  0
POLYLINE
  8
0
 62
     0
 66
     1
 10
0
 20
0
 30
0.0
 40
0.283465
 41
0.283465
  0
VERTEX
  8
0
 10
9.8125
 20
7.05024
 30
0.0
 40
0.00393701
 41
0.00393701
  0
VERTEX
  8
0
 10
9.79932
 20
6.94906
 30
0.0
 40
0.00393701
 41
0.00393701
  0
SEQEND
 8
0
  0
POLYLINE
  8
0
 62
     0
 66
     1
 10
0
 20
0
 30
0.0
 70
     1
 40
0
 41
0
  0
VERTEX
  8
0
 10
9.79932
 20
6.94906
 30
0.0
 40
0
 41
0
  0
VERTEX
  8
0
 10
9.78375
 20
6.84825
 30
0.0
 40
0
 41
0
  0
SEQEND
 8
0
  0
POLYLINE
  8
0
 62
     0
 66
     1
 10
0
 20
0
 30
0.0
 40
0.283465
 41
0.283465
  0
VERTEX
  8
0
 10
9.79932
 20
6.94906
 30
0.0
 40
0.00393701
 41
0.00393701
  0
VERTEX
  8
0
 10
9.78375
 20
6.84825
 30
0.0
 40
0.00393701
 41
0.00393701
  0
SEQEND
 8
0
  0
POLYLINE
  8
0
 62
     0
 66
     1
 10
0
 20
0
 30
0.0
 70
     1
 40
0
 41
0
  0
VERTEX
  8
0
 10
9.78375
 20
6.84825
 30
0.0
 40
0
 41
0
  0
VERTEX
  8
0
 10
9.76579
 20
6.74778
 30
0.0
 40
0
 41
0
  0
SEQEND
 8
0
  0
POLYLINE
  8
0
 62
     0
 66
     1
 10
0
 20
0
 30
0.0
 40
0.283465
 41
0.283465
  0
VERTEX
  8
0
 10
9.78375
 20
6.84825
 30
0.0
 40
0.00393701
 41
0.00393701
  0
VERTEX
  8
0
 10
9.76579
 20
6.74778
 30
0.0
 40
0.00393701
 41
0.00393701
  0
SEQEND
 8
0
  0
POLYLINE
  8
0
 62
     0
 66
     1
 10
0
 20
0
 30
0.0
 70
     1
 40
0
 41
0
  0
VERTEX
  8
0
 10
9.76579
 20
6.74778
 30
0.0
 40
0
 41
0
  0
VERTEX
  8
0
 10
9.7455
 20
6.64779
 30
0.0
 40
0
 41
0
  0
SEQEND
 8
0
  0
POLYLINE
  8
0
 62
     0
 66
     1
 10
0
 20
0
 30
0.0
 40
0.283465
 41
0.283465
  0
VERTEX
  8
0
 10
9.76579
 20
6.74778
 30
0.0
 40
0.00393701
 41
0.00393701
  0
VERTEX
  8
0
 10
9.7455
 20
6.64779
 30
0.0
 40
0.00393701
 41
0.00393701
  0
SEQEND
 8
0
  0
POLYLINE
  8
0
 62
     0
 66
     1
 10
0
 20
0
 30
0.0
 70
     1
 40
0
 41
0
  0
VERTEX
  8
0
 10
9.7455
 20
6.64779
 30
0.0
 40
0
 41
0
  0
VERTEX
  8
0
 10
9.72288
 20
6.54829
 30
0.0
 40
0
 41
0
  0
SEQEND
 8
0
  0
POLYLINE
  8
0
 62
     0
 66
     1
 10
0
 20
0
 30
0.0
 40
0.283465
 41
0.283465
  0
VERTEX
  8
0
 10
9.7455
 20
6.64779
 30
0.0
 40
0.00393701
 41
0.00393701
  0
VERTEX
  8
0
 10
9.72288
 20
6.54829
 30
0.0
 40
0.00393701
 41
0.00393701
  0
SEQEND
 8
0
  0
POLYLINE
  8
0
 62
     0
 66
     1
 10
0
 20
0
 30
0.0
 70
     1
 40
0
 41
0
  0
VERTEX
  8
0
 10
9.72288
 20
6.54829
 30
0.0
 40
0
 41
0
  0
VERTEX
  8
0
 10
9.69786
 20
6.44938
 30
0.0
 40
0
 41
0
  0
SEQEND
 8
0
  0
POLYLINE
  8
0
 62
     0
 66
     1
 10
0
 20
0
 30
0.0
 40
0.283465
 41
0.283465
  0
VERTEX
  8
0
 10
9.72288
 20
6.54829
 30
0.0
 40
0.00393701
 41
0.00393701
  0
VERTEX
  8
0
 10
9.69786
 20
6.44938
 30
0.0
 40
0.00393701
 41
0.00393701
  0
SEQEND
 8
0
  0
POLYLINE
  8
0
 62
     0
 66
     1
 10
0
 20
0
 30
0.0
 70
     1
 40
0
 41
0
  0
VERTEX
  8
0
 10
9.69786
 20
6.44938
 30
0.0
 40
0
 41
0
  0
VERTEX
  8
0
 10
9.67057
 20
6.35101
 30
0.0
 40
0
 41
0
  0
SEQEND
 8
0
  0
POLYLINE
  8
0
 62
     0
 66
     1
 10
0
 20
0
 30
0.0
 40
0.283465
 41
0.283465
  0
VERTEX
  8
0
 10
9.69786
 20
6.44938
 30
0.0
 40
0.00393701
 41
0.00393701
  0
VERTEX
  8
0
 10
9.67057
 20
6.35101
 30
0.0
 40
0.00393701
 41
0.00393701
  0
SEQEND
 8
0
  0
POLYLINE
  8
0
 62
     0
 66
     1
 10
0
 20
0
 30
0.0
 70
     1
 40
0
 41
0
  0
VERTEX
  8
0
 10
9.67057
 20
6.35101
 30
0.0
 40
0
 41
0
  0
VERTEX
  8
0
 10
9.64094
 20
6.25342
 30
0.0
 40
0
 41
0
  0
SEQEND
 8
0
  0
POLYLINE
  8
0
 62
     0
 66
     1
 10
0
 20
0
 30
0.0
 40
0.283465
 41
0.283465
  0
VERTEX
  8
0
 10
9.67057
 20
6.35101
 30
0.0
 40
0.00393701
 41
0.00393701
  0
VERTEX
  8
0
 10
9.64094
 20
6.25342
 30
0.0
 40
0.00393701
 41
0.00393701
  0
SEQEND
 8
0
  0
POLYLINE
  8
0
 62
     0
 66
     1
 10
0
 20
0
 30
0.0
 70
     1
 40
0
 41
0
  0
VERTEX
  8
0
 10
9.64094
 20
6.25342
 30
0.0
 40
0
 41
0
  0
VERTEX
  8
0
 10
9.60906
 20
6.15647
 30
0.0
 40
0
 41
0
  0
SEQEND
 8
0
  0
POLYLINE
  8
0
 62
     0
 66
     1
 10
0
 20
0
 30
0.0
 40
0.283465
 41
0.283465
  0
VERTEX
  8
0
 10
9.64094
 20
6.25342
 30
0.0
 40
0.00393701
 41
0.00393701
  0
VERTEX
  8
0
 10
9.60906
 20
6.15647
 30
0.0
 40
0.00393701
 41
0.00393701
  0
SEQEND
 8
0
  0
POLYLINE
  8
0
 62
     0
 66
     1
 10
0
 20
0
 30
0.0
 70
     1
 40
0
 41
0
  0
VERTEX
  8
0
 10
9.60906
 20
6.15647
 30
0.0
 40
0
 41
0
  0
VERTEX
  8
0
 10
9.57487
 20
6.06033
 30
0.0
 40
0
 41
0
  0
SEQEND
 8
0
  0
POLYLINE
  8
0
 62
     0
 66
     1
 10
0
 20
0
 30
0.0
 40
0.283465
 41
0.283465
  0
VERTEX
  8
0
 10
9.60906
 20
6.15647
 30
0.0
 40
0.00393701
 41
0.00393701
  0
VERTEX
  8
0
 10
9.57487
 20
6.06033
 30
0.0
 40
0.00393701
 41
0.00393701
  0
SEQEND
 8
0
  0
POLYLINE
  8
0
 62
     0
 66
     1
 10
0
 20
0
 30
0.0
 70
     1
 40
0
 41
0
  0
VERTEX
  8
0
 10
9.57487
 20
6.06033
 30
0.0
 40
0
 41
0
  0
VERTEX
  8
0
 10
9.53842
 20
5.965
 30
0.0
 40
0
 41
0
  0
SEQEND
 8
0
  0
POLYLINE
  8
0
 62
     0
 66
     1
 10
0
 20
0
 30
0.0
 40
0.283465
 41
0.283465
  0
VERTEX
  8
0
 10
9.57487
 20
6.06033
 30
0.0
 40
0.00393701
 41
0.00393701
  0
VERTEX
  8
0
 10
9.53842
 20
5.965
 30
0.0
 40
0.00393701
 41
0.00393701
  0
SEQEND
 8
0
  0
POLYLINE
  8
0
 62
     0
 66
     1
 10
0
 20
0
 30
0.0
 70
     1
 40
0
 41
0
  0
VERTEX
  8
0
 10
9.53842
 20
5.965
 30
0.0
 40
0
 41
0
  0
VERTEX
  8
0
 10
9.49972
 20
5.87061
 30
0.0
 40
0
 41
0
  0
SEQEND
 8
0
  0
POLYLINE
  8
0
 62
     0
 66
     1
 10
0
 20
0
 30
0.0
 40
0.283465
 41
0.283465
  0
VERTEX
  8
0
 10
9.53842
 20
5.965
 30
0.0
 40
0.00393701
 41
0.00393701
  0
VERTEX
  8
0
 10
9.49972
 20
5.87061
 30
0.0
 40
0.00393701
 41
0.00393701
  0
SEQEND
 8
0
  0
POLYLINE
  8
0
 62
     0
 66
     1
 10
0
 20
0
 30
0.0
 70
     1
 40
0
 41
0
  0
VERTEX
  8
0
 10
9.49972
 20
5.87061
 30
0.0
 40
0
 41
0
  0
VERTEX
  8
0
 10
9.45882
 20
5.77713
 30
0.0
 40
0
 41
0
  0
SEQEND
 8
0
  0
POLYLINE
  8
0
 62
     0
 66
     1
 10
0
 20
0
 30
0.0
 40
0.283465
 41
0.283465
  0
VERTEX
  8
0
 10
9.49972
 20
5.87061
 30
0.0
 40
0.00393701
 41
0.00393701
  0
VERTEX
  8
0
 10
9.45882
 20
5.77713
 30
0.0
 40
0.00393701
 41
0.00393701
  0
SEQEND
 8
0
  0
POLYLINE
  8
0
 62
     0
 66
     1
 10
0
 20
0
 30
0.0
 70
     1
 40
0
 41
0
  0
VERTEX
  8
0
 10
9.45882
 20
5.77713
 30
0.0
 40
0
 41
0
  0
VERTEX
  8
0
 10
9.41575
 20
5.68463
 30
0.0
 40
0
 41
0
  0
SEQEND
 8
0
  0
POLYLINE
  8
0
 62
     0
 66
     1
 10
0
 20
0
 30
0.0
 40
0.283465
 41
0.283465
  0
VERTEX
  8
0
 10
9.45882
 20
5.77713
 30
0.0
 40
0.00393701
 41
0.00393701
  0
VERTEX
  8
0
 10
9.41575
 20
5.68463
 30
0.0
 40
0.00393701
 41
0.00393701
  0
SEQEND
 8
0
  0
POLYLINE
  8
0
 62
     0
 66
     1
 10
0
 20
0
 30
0.0
 70
     1
 40
0
 41
0
  0
VERTEX
  8
0
 10
9.41575
 20
5.68463
 30
0.0
 40
0
 41
0
  0
VERTEX
  8
0
 10
9.3705
 20
5.59315
 30
0.0
 40
0
 41
0
  0
SEQEND
 8
0
  0
POLYLINE
  8
0
 62
     0
 66
     1
 10
0
 20
0
 30
0.0
 40
0.283465
 41
0.283465
  0
VERTEX
  8
0
 10
9.41575
 20
5.68463
 30
0.0
 40
0.00393701
 41
0.00393701
  0
VERTEX
  8
0
 10
9.3705
 20
5.59315
 30
0.0
 40
0.00393701
 41
0.00393701
  0
SEQEND
 8
0
  0
POLYLINE
  8
0
 62
     0
 66
     1
 10
0
 20
0
 30
0.0
 70
     1
 40
0
 41
0
  0
VERTEX
  8
0
 10
9.3705
 20
5.59315
 30
0.0
 40
0
 41
0
  0
VERTEX
  8
0
 10
9.32314
 20
5.50282
 30
0.0
 40
0
 41
0
  0
SEQEND
 8
0
  0
POLYLINE
  8
0
 62
     0
 66
     1
 10
0
 20
0
 30
0.0
 40
0.283465
 41
0.283465
  0
VERTEX
  8
0
 10
9.3705
 20
5.59315
 30
0.0
 40
0.00393701
 41
0.00393701
  0
VERTEX
  8
0
 10
9.32314
 20
5.50282
 30
0.0
 40
0.00393701
 41
0.00393701
  0
SEQEND
 8
0
  0
POLYLINE
  8
0
 62
     0
 66
     1
 10
0
 20
0
 30
0.0
 70
     1
 40
0
 41
0
  0
VERTEX
  8
0
 10
9.32314
 20
5.50282
 30
0.0
 40
0
 41
0
  0
VERTEX
  8
0
 10
9.2736
 20
5.41357
 30
0.0
 40
0
 41
0
  0
SEQEND
 8
0
  0
POLYLINE
  8
0
 62
     0
 66
     1
 10
0
 20
0
 30
0.0
 40
0.283465
 41
0.283465
  0
VERTEX
  8
0
 10
9.32314
 20
5.50282
 30
0.0
 40
0.00393701
 41
0.00393701
  0
VERTEX
  8
0
 10
9.2736
 20
5.41357
 30
0.0
 40
0.00393701
 41
0.00393701
  0
SEQEND
 8
0
  0
POLYLINE
  8
0
 62
     0
 66
     1
 10
0
 20
0
 30
0.0
 70
     1
 40
0
 41
0
  0
VERTEX
  8
0
 10
9.2736
 20
5.41357
 30
0.0
 40
0
 41
0
  0
VERTEX
  8
0
 10
9.222
 20
5.32557
 30
0.0
 40
0
 41
0
  0
SEQEND
 8
0
  0
POLYLINE
  8
0
 62
     0
 66
     1
 10
0
 20
0
 30
0.0
 40
0.283465
 41
0.283465
  0
VERTEX
  8
0
 10
9.2736
 20
5.41357
 30
0.0
 40
0.00393701
 41
0.00393701
  0
VERTEX
  8
0
 10
9.222
 20
5.32557
 30
0.0
 40
0.00393701
 41
0.00393701
  0
SEQEND
 8
0
  0
POLYLINE
  8
0
 62
     0
 66
     1
 10
0
 20
0
 30
0.0
 70
     1
 40
0
 41
0
  0
VERTEX
  8
0
 10
9.222
 20
5.32557
 30
0.0
 40
0
 41
0
  0
VERTEX
  8
0
 10
9.16835
 20
5.23876
 30
0.0
 40
0
 41
0
  0
SEQEND
 8
0
  0
POLYLINE
  8
0
 62
     0
 66
     1
 10
0
 20
0
 30
0.0
 40
0.283465
 41
0.283465
  0
VERTEX
  8
0
 10
9.222
 20
5.32557
 30
0.0
 40
0.00393701
 41
0.00393701
  0
VERTEX
  8
0
 10
9.16835
 20
5.23876
 30
0.0
 40
0.00393701
 41
0.00393701
  0
SEQEND
 8
0
  0
POLYLINE
  8
0
 62
     0
 66
     1
 10
0
 20
0
 30
0.0
 70
     1
 40
0
 41
0
  0
VERTEX
  8
0
 10
9.16835
 20
5.23876
 30
0.0
 40
0
 41
0
  0
VERTEX
  8
0
 10
9.11268
 20
5.15326
 30
0.0
 40
0
 41
0
  0
SEQEND
 8
0
  0
POLYLINE
  8
0
 62
     0
 66
     1
 10
0
 20
0
 30
0.0
 40
0.283465
 41
0.283465
  0
VERTEX
  8
0
 10
9.16835
 20
5.23876
 30
0.0
 40
0.00393701
 41
0.00393701
  0
VERTEX
  8
0
 10
9.11268
 20
5.15326
 30
0.0
 40
0.00393701
 41
0.00393701
  0
SEQEND
 8
0
  0
POLYLINE
  8
0
 62
     0
 66
     1
 10
0
 20
0
 30
0.0
 70
     1
 40
0
 41
0
  0
VERTEX
  8
0
 10
9.11268
 20
5.15326
 30
0.0
 40
0
 41
0
  0
VERTEX
  8
0
 10
9.05496
 20
5.06912
 30
0.0
 40
0
 41
0
  0
SEQEND
 8
0
  0
POLYLINE
  8
0
 62
     0
 66
     1
 10
0
 20
0
 30
0.0
 40
0.283465
 41
0.283465
  0
VERTEX
  8
0
 10
9.11268
 20
5.15326
 30
0.0
 40
0.00393701
 41
0.00393701
  0
VERTEX
  8
0
 10
9.05496
 20
5.06912
 30
0.0
 40
0.00393701
 41
0.00393701
  0
SEQEND
 8
0
  0
POLYLINE
  8
0
 62
     0
 66
     1
 10
0
 20
0
 30
0.0
 70
     1
 40
0
 41
0
  0
VERTEX
  8
0
 10
9.05496
 20
5.06912
 30
0.0
 40
0
 41
0
  0
VERTEX
  8
0
 10
8.99533
 20
4.98633
 30
0.0
 40
0
 41
0
  0
SEQEND
 8
0
  0
POLYLINE
  8
0
 62
     0
 66
     1
 10
0
 20
0
 30
0.0
 40
0.283465
 41
0.283465
  0
VERTEX
  8
0
 10
9.05496
 20
5.06912
 30
0.0
 40
0.00393701
 41
0.00393701
  0
VERTEX
  8
0
 10
8.99533
 20
4.98633
 30
0.0
 40
0.00393701
 41
0.00393701
  0
SEQEND
 8
0
  0
POLYLINE
  8
0
 62
     0
 66
     1
 10
0
 20
0
 30
0.0
 70
     1
 40
0
 41
0
  0
VERTEX
  8
0
 10
8.99533
 20
4.98633
 30
0.0
 40
0
 41
0
  0
VERTEX
  8
0
 10
8.93375
 20
4.90494
 30
0.0
 40
0
 41
0
  0
SEQEND
 8
0
  0
POLYLINE
  8
0
 62
     0
 66
     1
 10
0
 20
0
 30
0.0
 40
0.283465
 41
0.283465
  0
VERTEX
  8
0
 10
8.99533
 20
4.98633
 30
0.0
 40
0.00393701
 41
0.00393701
  0
VERTEX
  8
0
 10
8.93375
 20
4.90494
 30
0.0
 40
0.00393701
 41
0.00393701
  0
SEQEND
 8
0
  0
POLYLINE
  8
0
 62
     0
 66
     1
 10
0
 20
0
 30
0.0
 70
     1
 40
0
 41
0
  0
VERTEX
  8
0
 10
8.93375
 20
4.90494
 30
0.0
 40
0
 41
0
  0
VERTEX
  8
0
 10
8.87028
 20
4.82508
 30
0.0
 40
0
 41
0
  0
SEQEND
 8
0
  0
POLYLINE
  8
0
 62
     0
 66
     1
 10
0
 20
0
 30
0.0
 40
0.283465
 41
0.283465
  0
VERTEX
  8
0
 10
8.93375
 20
4.90494
 30
0.0
 40
0.00393701
 41
0.00393701
  0
VERTEX
  8
0
 10
8.87028
 20
4.82508
 30
0.0
 40
0.00393701
 41
0.00393701
  0
SEQEND
 8
0
  0
POLYLINE
  8
0
 62
     0
 66
     1
 10
0
 20
0
 30
0.0
 70
     1
 40
0
 41
0
  0
VERTEX
  8
0
 10
8.87028
 20
4.82508
 30
0.0
 40
0
 41
0
  0
VERTEX
  8
0
 10
8.8049
 20
4.74669
 30
0.0
 40
0
 41
0
  0
SEQEND
 8
0
  0
POLYLINE
  8
0
 62
     0
 66
     1
 10
0
 20
0
 30
0.0
 40
0.283465
 41
0.283465
  0
VERTEX
  8
0
 10
8.87028
 20
4.82508
 30
0.0
 40
0.00393701
 41
0.00393701
  0
VERTEX
  8
0
 10
8.8049
 20
4.74669
 30
0.0
 40
0.00393701
 41
0.00393701
  0
SEQEND
 8
0
  0
POLYLINE
  8
0
 62
     0
 66
     1
 10
0
 20
0
 30
0.0
 70
     1
 40
0
 41
0
  0
VERTEX
  8
0
 10
8.8049
 20
4.74669
 30
0.0
 40
0
 41
0
  0
VERTEX
  8
0
 10
8.73774
 20
4.66992
 30
0.0
 40
0
 41
0
  0
SEQEND
 8
0
  0
POLYLINE
  8
0
 62
     0
 66
     1
 10
0
 20
0
 30
0.0
 40
0.283465
 41
0.283465
  0
VERTEX
  8
0
 10
8.8049
 20
4.74669
 30
0.0
 40
0.00393701
 41
0.00393701
  0
VERTEX
  8
0
 10
8.73774
 20
4.66992
 30
0.0
 40
0.00393701
 41
0.00393701
  0
SEQEND
 8
0
  0
POLYLINE
  8
0
 62
     0
 66
     1
 10
0
 20
0
 30
0.0
 70
     1
 40
0
 41
0
  0
VERTEX
  8
0
 10
8.73774
 20
4.66992
 30
0.0
 40
0
 41
0
  0
VERTEX
  8
0
 10
8.66878
 20
4.59472
 30
0.0
 40
0
 41
0
  0
SEQEND
 8
0
  0
POLYLINE
  8
0
 62
     0
 66
     1
 10
0
 20
0
 30
0.0
 40
0.283465
 41
0.283465
  0
VERTEX
  8
0
 10
8.73774
 20
4.66992
 30
0.0
 40
0.00393701
 41
0.00393701
  0
VERTEX
  8
0
 10
8.66878
 20
4.59472
 30
0.0
 40
0.00393701
 41
0.00393701
  0
SEQEND
 8
0
  0
POLYLINE
  8
0
 62
     0
 66
     1
 10
0
 20
0
 30
0.0
 70
     1
 40
0
 41
0
  0
VERTEX
  8
0
 10
8.66878
 20
4.59472
 30
0.0
 40
0
 41
0
  0
VERTEX
  8
0
 10
8.59804
 20
4.52115
 30
0.0
 40
0
 41
0
  0
SEQEND
 8
0
  0
POLYLINE
  8
0
 62
     0
 66
     1
 10
0
 20
0
 30
0.0
 40
0.283465
 41
0.283465
  0
VERTEX
  8
0
 10
8.66878
 20
4.59472
 30
0.0
 40
0.00393701
 41
0.00393701
  0
VERTEX
  8
0
 10
8.59804
 20
4.52115
 30
0.0
 40
0.00393701
 41
0.00393701
  0
SEQEND
 8
0
  0
POLYLINE
  8
0
 62
     0
 66
     1
 10
0
 20
0
 30
0.0
 70
     1
 40
0
 41
0
  0
VERTEX
  8
0
 10
8.59804
 20
4.52115
 30
0.0
 40
0
 41
0
  0
VERTEX
  8
0
 10
8.52561
 20
4.44928
 30
0.0
 40
0
 41
0
  0
SEQEND
 8
0
  0
POLYLINE
  8
0
 62
     0
 66
     1
 10
0
 20
0
 30
0.0
 40
0.283465
 41
0.283465
  0
VERTEX
  8
0
 10
8.59804
 20
4.52115
 30
0.0
 40
0.00393701
 41
0.00393701
  0
VERTEX
  8
0
 10
8.52561
 20
4.44928
 30
0.0
 40
0.00393701
 41
0.00393701
  0
SEQEND
 8
0
  0
POLYLINE
  8
0
 62
     0
 66
     1
 10
0
 20
0
 30
0.0
 70
     1
 40
0
 41
0
  0
VERTEX
  8
0
 10
8.52561
 20
4.44928
 30
0.0
 40
0
 41
0
  0
VERTEX
  8
0
 10
8.4515
 20
4.37912
 30
0.0
 40
0
 41
0
  0
SEQEND
 8
0
  0
POLYLINE
  8
0
 62
     0
 66
     1
 10
0
 20
0
 30
0.0
 40
0.283465
 41
0.283465
  0
VERTEX
  8
0
 10
8.52561
 20
4.44928
 30
0.0
 40
0.00393701
 41
0.00393701
  0
VERTEX
  8
0
 10
8.4515
 20
4.37912
 30
0.0
 40
0.00393701
 41
0.00393701
  0
SEQEND
 8
0
  0
POLYLINE
  8
0
 62
     0
 66
     1
 10
0
 20
0
 30
0.0
 70
     1
 40
0
 41
0
  0
VERTEX
  8
0
 10
8.4515
 20
4.37912
 30
0.0
 40
0
 41
0
  0
VERTEX
  8
0
 10
8.37576
 20
4.31076
 30
0.0
 40
0
 41
0
  0
SEQEND
 8
0
  0
POLYLINE
  8
0
 62
     0
 66
     1
 10
0
 20
0
 30
0.0
 40
0.283465
 41
0.283465
  0
VERTEX
  8
0
 10
8.4515
 20
4.37912
 30
0.0
 40
0.00393701
 41
0.00393701
  0
VERTEX
  8
0
 10
8.37576
 20
4.31076
 30
0.0
 40
0.00393701
 41
0.00393701
  0
SEQEND
 8
0
  0
POLYLINE
  8
0
 62
     0
 66
     1
 10
0
 20
0
 30
0.0
 70
     1
 40
0
 41
0
  0
VERTEX
  8
0
 10
8.37576
 20
4.31076
 30
0.0
 40
0
 41
0
  0
VERTEX
  8
0
 10
8.29844
 20
4.24419
 30
0.0
 40
0
 41
0
  0
SEQEND
 8
0
  0
POLYLINE
  8
0
 62
     0
 66
     1
 10
0
 20
0
 30
0.0
 40
0.283465
 41
0.283465
  0
VERTEX
  8
0
 10
8.37576
 20
4.31076
 30
0.0
 40
0.00393701
 41
0.00393701
  0
VERTEX
  8
0
 10
8.29844
 20
4.24419
 30
0.0
 40
0.00393701
 41
0.00393701
  0
SEQEND
 8
0
  0
POLYLINE
  8
0
 62
     0
 66
     1
 10
0
 20
0
 30
0.0
 70
     1
 40
0
 41
0
  0
VERTEX
  8
0
 10
8.29844
 20
4.24419
 30
0.0
 40
0
 41
0
  0
VERTEX
  8
0
 10
8.21957
 20
4.17947
 30
0.0
 40
0
 41
0
  0
SEQEND
 8
0
  0
POLYLINE
  8
0
 62
     0
 66
     1
 10
0
 20
0
 30
0.0
 40
0.283465
 41
0.283465
  0
VERTEX
  8
0
 10
8.29844
 20
4.24419
 30
0.0
 40
0.00393701
 41
0.00393701
  0
VERTEX
  8
0
 10
8.21957
 20
4.17947
 30
0.0
 40
0.00393701
 41
0.00393701
  0
SEQEND
 8
0
  0
POLYLINE
  8
0
 62
     0
 66
     1
 10
0
 20
0
 30
0.0
 70
     1
 40
0
 41
0
  0
VERTEX
  8
0
 10
8.21957
 20
4.17947
 30
0.0
 40
0
 41
0
  0
VERTEX
  8
0
 10
8.13917
 20
4.1166
 30
0.0
 40
0
 41
0
  0
SEQEND
 8
0
  0
POLYLINE
  8
0
 62
     0
 66
     1
 10
0
 20
0
 30
0.0
 40
0.283465
 41
0.283465
  0
VERTEX
  8
0
 10
8.21957
 20
4.17947
 30
0.0
 40
0.00393701
 41
0.00393701
  0
VERTEX
  8
0
 10
8.13917
 20
4.1166
 30
0.0
 40
0.00393701
 41
0.00393701
  0
SEQEND
 8
0
  0
POLYLINE
  8
0
 62
     0
 66
     1
 10
0
 20
0
 30
0.0
 70
     1
 40
0
 41
0
  0
VERTEX
  8
0
 10
8.13917
 20
4.1166
 30
0.0
 40
0
 41
0
  0
VERTEX
  8
0
 10
8.05735
 20
4.05567
 30
0.0
 40
0
 41
0
  0
SEQEND
 8
0
  0
POLYLINE
  8
0
 62
     0
 66
     1
 10
0
 20
0
 30
0.0
 40
0.283465
 41
0.283465
  0
VERTEX
  8
0
 10
8.13917
 20
4.1166
 30
0.0
 40
0.00393701
 41
0.00393701
  0
VERTEX
  8
0
 10
8.05735
 20
4.05567
 30
0.0
 40
0.00393701
 41
0.00393701
  0
SEQEND
 8
0
  0
POLYLINE
  8
0
 62
     0
 66
     1
 10
0
 20
0
 30
0.0
 70
     1
 40
0
 41
0
  0
VERTEX
  8
0
 10
8.05735
 20
4.05567
 30
0.0
 40
0
 41
0
  0
VERTEX
  8
0
 10
7.97407
 20
3.99664
 30
0.0
 40
0
 41
0
  0
SEQEND
 8
0
  0
POLYLINE
  8
0
 62
     0
 66
     1
 10
0
 20
0
 30
0.0
 40
0.283465
 41
0.283465
  0
VERTEX
  8
0
 10
8.05735
 20
4.05567
 30
0.0
 40
0.00393701
 41
0.00393701
  0
VERTEX
  8
0
 10
7.97407
 20
3.99664
 30
0.0
 40
0.00393701
 41
0.00393701
  0
SEQEND
 8
0
  0
POLYLINE
  8
0
 62
     0
 66
     1
 10
0
 20
0
 30
0.0
 70
     1
 40
0
 41
0
  0
VERTEX
  8
0
 10
7.97407
 20
3.99664
 30
0.0
 40
0
 41
0
  0
VERTEX
  8
0
 10
7.88949
 20
3.93961
 30
0.0
 40
0
 41
0
  0
SEQEND
 8
0
  0
POLYLINE
  8
0
 62
     0
 66
     1
 10
0
 20
0
 30
0.0
 40
0.283465
 41
0.283465
  0
VERTEX
  8
0
 10
7.97407
 20
3.99664
 30
0.0
 40
0.00393701
 41
0.00393701
  0
VERTEX
  8
0
 10
7.88949
 20
3.93961
 30
0.0
 40
0.00393701
 41
0.00393701
  0
SEQEND
 8
0
  0
POLYLINE
  8
0
 62
     0
 66
     1
 10
0
 20
0
 30
0.0
 70
     1
 40
0
 41
0
  0
VERTEX
  8
0
 10
7.88949
 20
3.93961
 30
0.0
 40
0
 41
0
  0
VERTEX
  8
0
 10
7.80354
 20
3.8846
 30
0.0
 40
0
 41
0
  0
SEQEND
 8
0
  0
POLYLINE
  8
0
 62
     0
 66
     1
 10
0
 20
0
 30
0.0
 40
0.283465
 41
0.283465
  0
VERTEX
  8
0
 10
7.88949
 20
3.93961
 30
0.0
 40
0.00393701
 41
0.00393701
  0
VERTEX
  8
0
 10
7.80354
 20
3.8846
 30
0.0
 40
0.00393701
 41
0.00393701
  0
SEQEND
 8
0
  0
POLYLINE
  8
0
 62
     0
 66
     1
 10
0
 20
0
 30
0.0
 70
     1
 40
0
 41
0
  0
VERTEX
  8
0
 10
7.80354
 20
3.8846
 30
0.0
 40
0
 41
0
  0
VERTEX
  8
0
 10
7.71631
 20
3.83165
 30
0.0
 40
0
 41
0
  0
SEQEND
 8
0
  0
POLYLINE
  8
0
 62
     0
 66
     1
 10
0
 20
0
 30
0.0
 40
0.283465
 41
0.283465
  0
VERTEX
  8
0
 10
7.80354
 20
3.8846
 30
0.0
 40
0.00393701
 41
0.00393701
  0
VERTEX
  8
0
 10
7.71631
 20
3.83165
 30
0.0
 40
0.00393701
 41
0.00393701
  0
SEQEND
 8
0
  0
POLYLINE
  8
0
 62
     0
 66
     1
 10
0
 20
0
 30
0.0
 70
     1
 40
0
 41
0
  0
VERTEX
  8
0
 10
7.71631
 20
3.83165
 30
0.0
 40
0
 41
0
  0
VERTEX
  8
0
 10
7.62787
 20
3.78076
 30
0.0
 40
0
 41
0
  0
SEQEND
 8
0
  0
POLYLINE
  8
0
 62
     0
 66
     1
 10
0
 20
0
 30
0.0
 40
0.283465
 41
0.283465
  0
VERTEX
  8
0
 10
7.71631
 20
3.83165
 30
0.0
 40
0.00393701
 41
0.00393701
  0
VERTEX
  8
0
 10
7.62787
 20
3.78076
 30
0.0
 40
0.00393701
 41
0.00393701
  0
SEQEND
 8
0
  0
POLYLINE
  8
0
 62
     0
 66
     1
 10
0
 20
0
 30
0.0
 70
     1
 40
0
 41
0
  0
VERTEX
  8
0
 10
7.62787
 20
3.78076
 30
0.0
 40
0
 41
0
  0
VERTEX
  8
0
 10
7.53831
 20
3.73193
 30
0.0
 40
0
 41
0
  0
SEQEND
 8
0
  0
POLYLINE
  8
0
 62
     0
 66
     1
 10
0
 20
0
 30
0.0
 40
0.283465
 41
0.283465
  0
VERTEX
  8
0
 10
7.62787
 20
3.78076
 30
0.0
 40
0.00393701
 41
0.00393701
  0
VERTEX
  8
0
 10
7.53831
 20
3.73193
 30
0.0
 40
0.00393701
 41
0.00393701
  0
SEQEND
 8
0
  0
POLYLINE
  8
0
 62
     0
 66
     1
 10
0
 20
0
 30
0.0
 70
     1
 40
0
 41
0
  0
VERTEX
  8
0
 10
7.53831
 20
3.73193
 30
0.0
 40
0
 41
0
  0
VERTEX
  8
0
 10
7.44754
 20
3.68528
 30
0.0
 40
0
 41
0
  0
SEQEND
 8
0
  0
POLYLINE
  8
0
 62
     0
 66
     1
 10
0
 20
0
 30
0.0
 40
0.283465
 41
0.283465
  0
VERTEX
  8
0
 10
7.53831
 20
3.73193
 30
0.0
 40
0.00393701
 41
0.00393701
  0
VERTEX
  8
0
 10
7.44754
 20
3.68528
 30
0.0
 40
0.00393701
 41
0.00393701
  0
SEQEND
 8
0
  0
POLYLINE
  8
0
 62
     0
 66
     1
 10
0
 20
0
 30
0.0
 70
     1
 40
0
 41
0
  0
VERTEX
  8
0
 10
7.44754
 20
3.68528
 30
0.0
 40
0
 41
0
  0
VERTEX
  8
0
 10
7.35574
 20
3.64074
 30
0.0
 40
0
 41
0
  0
SEQEND
 8
0
  0
POLYLINE
  8
0
 62
     0
 66
     1
 10
0
 20
0
 30
0.0
 40
0.283465
 41
0.283465
  0
VERTEX
  8
0
 10
7.44754
 20
3.68528
 30
0.0
 40
0.00393701
 41
0.00393701
  0
VERTEX
  8
0
 10
7.35574
 20
3.64074
 30
0.0
 40
0.00393701
 41
0.00393701
  0
SEQEND
 8
0
  0
POLYLINE
  8
0
 62
     0
 66
     1
 10
0
 20
0
 30
0.0
 70
     1
 40
0
 41
0
  0
VERTEX
  8
0
 10
7.35574
 20
3.64074
 30
0.0
 40
0
 41
0
  0
VERTEX
  8
0
 10
7.26292
 20
3.59836
 30
0.0
 40
0
 41
0
  0
SEQEND
 8
0
  0
POLYLINE
  8
0
 62
     0
 66
     1
 10
0
 20
0
 30
0.0
 40
0.283465
 41
0.283465
  0
VERTEX
  8
0
 10
7.35574
 20
3.64074
 30
0.0
 40
0.00393701
 41
0.00393701
  0
VERTEX
  8
0
 10
7.26292
 20
3.59836
 30
0.0
 40
0.00393701
 41
0.00393701
  0
SEQEND
 8
0
  0
POLYLINE
  8
0
 62
     0
 66
     1
 10
0
 20
0
 30
0.0
 70
     1
 40
0
 41
0
  0
VERTEX
  8
0
 10
7.26292
 20
3.59836
 30
0.0
 40
0
 41
0
  0
VERTEX
  8
0
 10
7.16911
 20
3.55821
 30
0.0
 40
0
 41
0
  0
SEQEND
 8
0
  0
POLYLINE
  8
0
 62
     0
 66
     1
 10
0
 20
0
 30
0.0
 40
0.283465
 41
0.283465
  0
VERTEX
  8
0
 10
7.26292
 20
3.59836
 30
0.0
 40
0.00393701
 41
0.00393701
  0
VERTEX
  8
0
 10
7.16911
 20
3.55821
 30
0.0
 40
0.00393701
 41
0.00393701
  0
SEQEND
 8
0
  0
POLYLINE
  8
0
 62
     0
 66
     1
 10
0
 20
0
 30
0.0
 70
     1
 40
0
 41
0
  0
VERTEX
  8
0
 10
7.16911
 20
3.55821
 30
0.0
 40
0
 41
0
  0
VERTEX
  8
0
 10
7.07438
 20
3.52029
 30
0.0
 40
0
 41
0
  0
SEQEND
 8
0
  0
POLYLINE
  8
0
 62
     0
 66
     1
 10
0
 20
0
 30
0.0
 40
0.283465
 41
0.283465
  0
VERTEX
  8
0
 10
7.16911
 20
3.55821
 30
0.0
 40
0.00393701
 41
0.00393701
  0
VERTEX
  8
0
 10
7.07438
 20
3.52029
 30
0.0
 40
0.00393701
 41
0.00393701
  0
SEQEND
 8
0
  0
POLYLINE
  8
0
 62
     0
 66
     1
 10
0
 20
0
 30
0.0
 70
     1
 40
0
 41
0
  0
VERTEX
  8
0
 10
7.07438
 20
3.52029
 30
0.0
 40
0
 41
0
  0
VERTEX
  8
0
 10
6.97879
 20
3.4846
 30
0.0
 40
0
 41
0
  0
SEQEND
 8
0
  0
POLYLINE
  8
0
 62
     0
 66
     1
 10
0
 20
0
 30
0.0
 40
0.283465
 41
0.283465
  0
VERTEX
  8
0
 10
7.07438
 20
3.52029
 30
0.0
 40
0.00393701
 41
0.00393701
  0
VERTEX
  8
0
 10
6.97879
 20
3.4846
 30
0.0
 40
0.00393701
 41
0.00393701
  0
SEQEND
 8
0
  0
POLYLINE
  8
0
 62
     0
 66
     1
 10
0
 20
0
 30
0.0
 70
     1
 40
0
 41
0
  0
VERTEX
  8
0
 10
6.97879
 20
3.4846
 30
0.0
 40
0
 41
0
  0
VERTEX
  8
0
 10
6.88238
 20
3.45117
 30
0.0
 40
0
 41
0
  0
SEQEND
 8
0
  0
POLYLINE
  8
0
 62
     0
 66
     1
 10
0
 20
0
 30
0.0
 40
0.283465
 41
0.283465
  0
VERTEX
  8
0
 10
6.97879
 20
3.4846
 30
0.0
 40
0.00393701
 41
0.00393701
  0
VERTEX
  8
0
 10
6.88238
 20
3.45117
 30
0.0
 40
0.00393701
 41
0.00393701
  0
SEQEND
 8
0
  0
POLYLINE
  8
0
 62
     0
 66
     1
 10
0
 20
0
 30
0.0
 70
     1
 40
0
 41
0
  0
VERTEX
  8
0
 10
6.88238
 20
3.45117
 30
0.0
 40
0
 41
0
  0
VERTEX
  8
0
 10
6.78521
 20
3.42003
 30
0.0
 40
0
 41
0
  0
SEQEND
 8
0
  0
POLYLINE
  8
0
 62
     0
 66
     1
 10
0
 20
0
 30
0.0
 40
0.283465
 41
0.283465
  0
VERTEX
  8
0
 10
6.88238
 20
3.45117
 30
0.0
 40
0.00393701
 41
0.00393701
  0
VERTEX
  8
0
 10
6.78521
 20
3.42003
 30
0.0
 40
0.00393701
 41
0.00393701
  0
SEQEND
 8
0
  0
POLYLINE
  8
0
 62
     0
 66
     1
 10
0
 20
0
 30
0.0
 70
     1
 40
0
 41
0
  0
VERTEX
  8
0
 10
6.78521
 20
3.42003
 30
0.0
 40
0
 41
0
  0
VERTEX
  8
0
 10
6.68733
 20
3.39117
 30
0.0
 40
0
 41
0
  0
SEQEND
 8
0
  0
POLYLINE
  8
0
 62
     0
 66
     1
 10
0
 20
0
 30
0.0
 40
0.283465
 41
0.283465
  0
VERTEX
  8
0
 10
6.78521
 20
3.42003
 30
0.0
 40
0.00393701
 41
0.00393701
  0
VERTEX
  8
0
 10
6.68733
 20
3.39117
 30
0.0
 40
0.00393701
 41
0.00393701
  0
SEQEND
 8
0
  0
POLYLINE
  8
0
 62
     0
 66
     1
 10
0
 20
0
 30
0.0
 70
     1
 40
0
 41
0
  0
VERTEX
  8
0
 10
6.68733
 20
3.39117
 30
0.0
 40
0
 41
0
  0
VERTEX
  8
0
 10
6.58882
 20
3.36464
 30
0.0
 40
0
 41
0
  0
SEQEND
 8
0
  0
POLYLINE
  8
0
 62
     0
 66
     1
 10
0
 20
0
 30
0.0
 40
0.283465
 41
0.283465
  0
VERTEX
  8
0
 10
6.68733
 20
3.39117
 30
0.0
 40
0.00393701
 41
0.00393701
  0
VERTEX
  8
0
 10
6.58882
 20
3.36464
 30
0.0
 40
0.00393701
 41
0.00393701
  0
SEQEND
 8
0
  0
POLYLINE
  8
0
 62
     0
 66
     1
 10
0
 20
0
 30
0.0
 70
     1
 40
0
 41
0
  0
VERTEX
  8
0
 10
6.58882
 20
3.36464
 30
0.0
 40
0
 41
0
  0
VERTEX
  8
0
 10
6.48969
 20
3.34039
 30
0.0
 40
0
 41
0
  0
SEQEND
 8
0
  0
POLYLINE
  8
0
 62
     0
 66
     1
 10
0
 20
0
 30
0.0
 40
0.283465
 41
0.283465
  0
VERTEX
  8
0
 10
6.58882
 20
3.36464
 30
0.0
 40
0.00393701
 41
0.00393701
  0
VERTEX
  8
0
 10
6.48969
 20
3.34039
 30
0.0
 40
0.00393701
 41
0.00393701
  0
SEQEND
 8
0
  0
POLYLINE
  8
0
 62
     0
 66
     1
 10
0
 20
0
 30
0.0
 70
     1
 40
0
 41
0
  0
VERTEX
  8
0
 10
6.48969
 20
3.34039
 30
0.0
 40
0
 41
0
  0
VERTEX
  8
0
 10
6.39003
 20
3.31853
 30
0.0
 40
0
 41
0
  0
SEQEND
 8
0
  0
POLYLINE
  8
0
 62
     0
 66
     1
 10
0
 20
0
 30
0.0
 40
0.283465
 41
0.283465
  0
VERTEX
  8
0
 10
6.48969
 20
3.34039
 30
0.0
 40
0.00393701
 41
0.00393701
  0
VERTEX
  8
0
 10
6.39003
 20
3.31853
 30
0.0
 40
0.00393701
 41
0.00393701
  0
SEQEND
 8
0
  0
POLYLINE
  8
0
 62
     0
 66
     1
 10
0
 20
0
 30
0.0
 70
     1
 40
0
 41
0
  0
VERTEX
  8
0
 10
6.39003
 20
3.31853
 30
0.0
 40
0
 41
0
  0
VERTEX
  8
0
 10
6.28988
 20
3.29904
 30
0.0
 40
0
 41
0
  0
SEQEND
 8
0
  0
POLYLINE
  8
0
 62
     0
 66
     1
 10
0
 20
0
 30
0.0
 40
0.283465
 41
0.283465
  0
VERTEX
  8
0
 10
6.39003
 20
3.31853
 30
0.0
 40
0.00393701
 41
0.00393701
  0
VERTEX
  8
0
 10
6.28988
 20
3.29904
 30
0.0
 40
0.00393701
 41
0.00393701
  0
SEQEND
 8
0
  0
POLYLINE
  8
0
 62
     0
 66
     1
 10
0
 20
0
 30
0.0
 70
     1
 40
0
 41
0
  0
VERTEX
  8
0
 10
6.28988
 20
3.29904
 30
0.0
 40
0
 41
0
  0
VERTEX
  8
0
 10
6.18929
 20
3.2819
 30
0.0
 40
0
 41
0
  0
SEQEND
 8
0
  0
POLYLINE
  8
0
 62
     0
 66
     1
 10
0
 20
0
 30
0.0
 40
0.283465
 41
0.283465
  0
VERTEX
  8
0
 10
6.28988
 20
3.29904
 30
0.0
 40
0.00393701
 41
0.00393701
  0
VERTEX
  8
0
 10
6.18929
 20
3.2819
 30
0.0
 40
0.00393701
 41
0.00393701
  0
SEQEND
 8
0
  0
POLYLINE
  8
0
 62
     0
 66
     1
 10
0
 20
0
 30
0.0
 70
     1
 40
0
 41
0
  0
VERTEX
  8
0
 10
6.18929
 20
3.2819
 30
0.0
 40
0
 41
0
  0
VERTEX
  8
0
 10
6.08832
 20
3.26708
 30
0.0
 40
0
 41
0
  0
SEQEND
 8
0
  0
POLYLINE
  8
0
 62
     0
 66
     1
 10
0
 20
0
 30
0.0
 40
0.283465
 41
0.283465
  0
VERTEX
  8
0
 10
6.18929
 20
3.2819
 30
0.0
 40
0.00393701
 41
0.00393701
  0
VERTEX
  8
0
 10
6.08832
 20
3.26708
 30
0.0
 40
0.00393701
 41
0.00393701
  0
SEQEND
 8
0
  0
POLYLINE
  8
0
 62
     0
 66
     1
 10
0
 20
0
 30
0.0
 70
     1
 40
0
 41
0
  0
VERTEX
  8
0
 10
6.08832
 20
3.26708
 30
0.0
 40
0
 41
0
  0
VERTEX
  8
0
 10
5.98703
 20
3.25472
 30
0.0
 40
0
 41
0
  0
SEQEND
 8
0
  0
POLYLINE
  8
0
 62
     0
 66
     1
 10
0
 20
0
 30
0.0
 40
0.283465
 41
0.283465
  0
VERTEX
  8
0
 10
6.08832
 20
3.26708
 30
0.0
 40
0.00393701
 41
0.00393701
  0
VERTEX
  8
0
 10
5.98703
 20
3.25472
 30
0.0
 40
0.00393701
 41
0.00393701
  0
SEQEND
 8
0
  0
POLYLINE
  8
0
 62
     0
 66
     1
 10
0
 20
0
 30
0.0
 70
     1
 40
0
 41
0
  0
VERTEX
  8
0
 10
5.98703
 20
3.25472
 30
0.0
 40
0
 41
0
  0
VERTEX
  8
0
 10
5.88547
 20
3.24474
 30
0.0
 40
0
 41
0
  0
SEQEND
 8
0
  0
POLYLINE
  8
0
 62
     0
 66
     1
 10
0
 20
0
 30
0.0
 40
0.283465
 41
0.283465
  0
VERTEX
  8
0
 10
5.98703
 20
3.25472
 30
0.0
 40
0.00393701
 41
0.00393701
  0
VERTEX
  8
0
 10
5.88547
 20
3.24474
 30
0.0
 40
0.00393701
 41
0.00393701
  0
SEQEND
 8
0
  0
POLYLINE
  8
0
 62
     0
 66
     1
 10
0
 20
0
 30
0.0
 70
     1
 40
0
 41
0
  0
VERTEX
  8
0
 10
5.88547
 20
3.24474
 30
0.0
 40
0
 41
0
  0
VERTEX
  8
0
 10
5.78375
 20
3.23708
 30
0.0
 40
0
 41
0
  0
SEQEND
 8
0
  0
POLYLINE
  8
0
 62
     0
 66
     1
 10
0
 20
0
 30
0.0
 40
0.283465
 41
0.283465
  0
VERTEX
  8
0
 10
5.88547
 20
3.24474
 30
0.0
 40
0.00393701
 41
0.00393701
  0
VERTEX
  8
0
 10
5.78375
 20
3.23708
 30
0.0
 40
0.00393701
 41
0.00393701
  0
SEQEND
 8
0
  0
POLYLINE
  8
0
 62
     0
 66
     1
 10
0
 20
0
 30
0.0
 70
     1
 40
0
 41
0
  0
VERTEX
  8
0
 10
5.78375
 20
3.23708
 30
0.0
 40
0
 41
0
  0
VERTEX
  8
0
 10
5.68186
 20
3.23188
 30
0.0
 40
0
 41
0
  0
SEQEND
 8
0
  0
POLYLINE
  8
0
 62
     0
 66
     1
 10
0
 20
0
 30
0.0
 40
0.283465
 41
0.283465
  0
VERTEX
  8
0
 10
5.78375
 20
3.23708
 30
0.0
 40
0.00393701
 41
0.00393701
  0
VERTEX
  8
0
 10
5.68186
 20
3.23188
 30
0.0
 40
0.00393701
 41
0.00393701
  0
SEQEND
 8
0
  0
POLYLINE
  8
0
 62
     0
 66
     1
 10
0
 20
0
 30
0.0
 70
     1
 40
0
 41
0
  0
VERTEX
  8
0
 10
5.68186
 20
3.23188
 30
0.0
 40
0
 41
0
  0
VERTEX
  8
0
 10
5.57986
 20
3.22911
 30
0.0
 40
0
 41
0
  0
SEQEND
 8
0
  0
POLYLINE
  8
0
 62
     0
 66
     1
 10
0
 20
0
 30
0.0
 40
0.283465
 41
0.283465
  0
VERTEX
  8
0
 10
5.68186
 20
3.23188
 30
0.0
 40
0.00393701
 41
0.00393701
  0
VERTEX
  8
0
 10
5.57986
 20
3.22911
 30
0.0
 40
0.00393701
 41
0.00393701
  0
SEQEND
 8
0
  0
POLYLINE
  8
0
 62
     0
 66
     1
 10
0
 20
0
 30
0.0
 70
     1
 40
0
 41
0
  0
VERTEX
  8
0
 10
5.57986
 20
3.22911
 30
0.0
 40
0
 41
0
  0
VERTEX
  8
0
 10
5.47781
 20
3.22868
 30
0.0
 40
0
 41
0
  0
SEQEND
 8
0
  0
POLYLINE
  8
0
 62
     0
 66
     1
 10
0
 20
0
 30
0.0
 40
0.283465
 41
0.283465
  0
VERTEX
  8
0
 10
5.57986
 20
3.22911
 30
0.0
 40
0.00393701
 41
0.00393701
  0
VERTEX
  8
0
 10
5.47781
 20
3.22868
 30
0.0
 40
0.00393701
 41
0.00393701
  0
SEQEND
 8
0
  0
POLYLINE
  8
0
 62
     0
 66
     1
 10
0
 20
0
 30
0.0
 70
     1
 40
0
 41
0
  0
VERTEX
  8
0
 10
5.47781
 20
3.22868
 30
0.0
 40
0
 41
0
  0
VERTEX
  8
0
 10
5.37576
 20
3.23068
 30
0.0
 40
0
 41
0
  0
SEQEND
 8
0
  0
POLYLINE
  8
0
 62
     0
 66
     1
 10
0
 20
0
 30
0.0
 40
0.283465
 41
0.283465
  0
VERTEX
  8
0
 10
5.47781
 20
3.22868
 30
0.0
 40
0.00393701
 41
0.00393701
  0
VERTEX
  8
0
 10
5.37576
 20
3.23068
 30
0.0
 40
0.00393701
 41
0.00393701
  0
SEQEND
 8
0
  0
POLYLINE
  8
0
 62
     0
 66
     1
 10
0
 20
0
 30
0.0
 70
     1
 40
0
 41
0
  0
VERTEX
  8
0
 10
5.37576
 20
3.23068
 30
0.0
 40
0
 41
0
  0
VERTEX
  8
0
 10
5.27382
 20
3.23514
 30
0.0
 40
0
 41
0
  0
SEQEND
 8
0
  0
POLYLINE
  8
0
 62
     0
 66
     1
 10
0
 20
0
 30
0.0
 40
0.283465
 41
0.283465
  0
VERTEX
  8
0
 10
5.37576
 20
3.23068
 30
0.0
 40
0.00393701
 41
0.00393701
  0
VERTEX
  8
0
 10
5.27382
 20
3.23514
 30
0.0
 40
0.00393701
 41
0.00393701
  0
SEQEND
 8
0
  0
POLYLINE
  8
0
 62
     0
 66
     1
 10
0
 20
0
 30
0.0
 70
     1
 40
0
 41
0
  0
VERTEX
  8
0
 10
5.27382
 20
3.23514
 30
0.0
 40
0
 41
0
  0
VERTEX
  8
0
 10
5.17204
 20
3.24192
 30
0.0
 40
0
 41
0
  0
SEQEND
 8
0
  0
POLYLINE
  8
0
 62
     0
 66
     1
 10
0
 20
0
 30
0.0
 40
0.283465
 41
0.283465
  0
VERTEX
  8
0
 10
5.27382
 20
3.23514
 30
0.0
 40
0.00393701
 41
0.00393701
  0
VERTEX
  8
0
 10
5.17204
 20
3.24192
 30
0.0
 40
0.00393701
 41
0.00393701
  0
SEQEND
 8
0
  0
POLYLINE
  8
0
 62
     0
 66
     1
 10
0
 20
0
 30
0.0
 70
     1
 40
0
 41
0
  0
VERTEX
  8
0
 10
5.17204
 20
3.24192
 30
0.0
 40
0
 41
0
  0
VERTEX
  8
0
 10
5.07042
 20
3.25114
 30
0.0
 40
0
 41
0
  0
SEQEND
 8
0
  0
POLYLINE
  8
0
 62
     0
 66
     1
 10
0
 20
0
 30
0.0
 40
0.283465
 41
0.283465
  0
VERTEX
  8
0
 10
5.17204
 20
3.24192
 30
0.0
 40
0.00393701
 41
0.00393701
  0
VERTEX
  8
0
 10
5.07042
 20
3.25114
 30
0.0
 40
0.00393701
 41
0.00393701
  0
SEQEND
 8
0
  0
POLYLINE
  8
0
 62
     0
 66
     1
 10
0
 20
0
 30
0.0
 70
     1
 40
0
 41
0
  0
VERTEX
  8
0
 10
5.07042
 20
3.25114
 30
0.0
 40
0
 41
0
  0
VERTEX
  8
0
 10
4.96903
 20
3.26269
 30
0.0
 40
0
 41
0
  0
SEQEND
 8
0
  0
POLYLINE
  8
0
 62
     0
 66
     1
 10
0
 20
0
 30
0.0
 40
0.283465
 41
0.283465
  0
VERTEX
  8
0
 10
5.07042
 20
3.25114
 30
0.0
 40
0.00393701
 41
0.00393701
  0
VERTEX
  8
0
 10
4.96903
 20
3.26269
 30
0.0
 40
0.00393701
 41
0.00393701
  0
SEQEND
 8
0
  0
POLYLINE
  8
0
 62
     0
 66
     1
 10
0
 20
0
 30
0.0
 70
     1
 40
0
 41
0
  0
VERTEX
  8
0
 10
4.96903
 20
3.26269
 30
0.0
 40
0
 41
0
  0
VERTEX
  8
0
 10
4.86794
 20
3.27669
 30
0.0
 40
0
 41
0
  0
SEQEND
 8
0
  0
POLYLINE
  8
0
 62
     0
 66
     1
 10
0
 20
0
 30
0.0
 40
0.283465
 41
0.283465
  0
VERTEX
  8
0
 10
4.96903
 20
3.26269
 30
0.0
 40
0.00393701
 41
0.00393701
  0
VERTEX
  8
0
 10
4.86794
 20
3.27669
 30
0.0
 40
0.00393701
 41
0.00393701
  0
SEQEND
 8
0
  0
POLYLINE
  8
0
 62
     0
 66
     1
 10
0
 20
0
 30
0.0
 70
     1
 40
0
 41
0
  0
VERTEX
  8
0
 10
4.86794
 20
3.27669
 30
0.0
 40
0
 41
0
  0
VERTEX
  8
0
 10
4.76725
 20
3.29308
 30
0.0
 40
0
 41
0
  0
SEQEND
 8
0
  0
POLYLINE
  8
0
 62
     0
 66
     1
 10
0
 20
0
 30
0.0
 40
0.283465
 41
0.283465
  0
VERTEX
  8
0
 10
4.86794
 20
3.27669
 30
0.0
 40
0.00393701
 41
0.00393701
  0
VERTEX
  8
0
 10
4.76725
 20
3.29308
 30
0.0
 40
0.00393701
 41
0.00393701
  0
SEQEND
 8
0
  0
POLYLINE
  8
0
 62
     0
 66
     1
 10
0
 20
0
 30
0.0
 70
     1
 40
0
 41
0
  0
VERTEX
  8
0
 10
4.76725
 20
3.29308
 30
0.0
 40
0
 41
0
  0
VERTEX
  8
0
 10
4.66694
 20
3.31179
 30
0.0
 40
0
 41
0
  0
SEQEND
 8
0
  0
POLYLINE
  8
0
 62
     0
 66
     1
 10
0
 20
0
 30
0.0
 40
0.283465
 41
0.283465
  0
VERTEX
  8
0
 10
4.76725
 20
3.29308
 30
0.0
 40
0.00393701
 41
0.00393701
  0
VERTEX
  8
0
 10
4.66694
 20
3.31179
 30
0.0
 40
0.00393701
 41
0.00393701
  0
SEQEND
 8
0
  0
POLYLINE
  8
0
 62
     0
 66
     1
 10
0
 20
0
 30
0.0
 70
     1
 40
0
 41
0
  0
VERTEX
  8
0
 10
4.66694
 20
3.31179
 30
0.0
 40
0
 41
0
  0
VERTEX
  8
0
 10
4.56711
 20
3.33285
 30
0.0
 40
0
 41
0
  0
SEQEND
 8
0
  0
POLYLINE
  8
0
 62
     0
 66
     1
 10
0
 20
0
 30
0.0
 40
0.283465
 41
0.283465
  0
VERTEX
  8
0
 10
4.66694
 20
3.31179
 30
0.0
 40
0.00393701
 41
0.00393701
  0
VERTEX
  8
0
 10
4.56711
 20
3.33285
 30
0.0
 40
0.00393701
 41
0.00393701
  0
SEQEND
 8
0
  0
POLYLINE
  8
0
 62
     0
 66
     1
 10
0
 20
0
 30
0.0
 70
     1
 40
0
 41
0
  0
VERTEX
  8
0
 10
4.56711
 20
3.33285
 30
0.0
 40
0
 41
0
  0
VERTEX
  8
0
 10
4.46778
 20
3.35628
 30
0.0
 40
0
 41
0
  0
SEQEND
 8
0
  0
POLYLINE
  8
0
 62
     0
 66
     1
 10
0
 20
0
 30
0.0
 40
0.283465
 41
0.283465
  0
VERTEX
  8
0
 10
4.56711
 20
3.33285
 30
0.0
 40
0.00393701
 41
0.00393701
  0
VERTEX
  8
0
 10
4.46778
 20
3.35628
 30
0.0
 40
0.00393701
 41
0.00393701
  0
SEQEND
 8
0
  0
POLYLINE
  8
0
 62
     0
 66
     1
 10
0
 20
0
 30
0.0
 70
     1
 40
0
 41
0
  0
VERTEX
  8
0
 10
4.46778
 20
3.35628
 30
0.0
 40
0
 41
0
  0
VERTEX
  8
0
 10
4.36903
 20
3.38206
 30
0.0
 40
0
 41
0
  0
SEQEND
 8
0
  0
POLYLINE
  8
0
 62
     0
 66
     1
 10
0
 20
0
 30
0.0
 40
0.283465
 41
0.283465
  0
VERTEX
  8
0
 10
4.46778
 20
3.35628
 30
0.0
 40
0.00393701
 41
0.00393701
  0
VERTEX
  8
0
 10
4.36903
 20
3.38206
 30
0.0
 40
0.00393701
 41
0.00393701
  0
SEQEND
 8
0
  0
POLYLINE
  8
0
 62
     0
 66
     1
 10
0
 20
0
 30
0.0
 70
     1
 40
0
 41
0
  0
VERTEX
  8
0
 10
4.36903
 20
3.38206
 30
0.0
 40
0
 41
0
  0
VERTEX
  8
0
 10
4.27094
 20
3.41015
 30
0.0
 40
0
 41
0
  0
SEQEND
 8
0
  0
POLYLINE
  8
0
 62
     0
 66
     1
 10
0
 20
0
 30
0.0
 40
0.283465
 41
0.283465
  0
VERTEX
  8
0
 10
4.36903
 20
3.38206
 30
0.0
 40
0.00393701
 41
0.00393701
  0
VERTEX
  8
0
 10
4.27094
 20
3.41015
 30
0.0
 40
0.00393701
 41
0.00393701
  0
SEQEND
 8
0
  0
POLYLINE
  8
0
 62
     0
 66
     1
 10
0
 20
0
 30
0.0
 70
     1
 40
0
 41
0
  0
VERTEX
  8
0
 10
4.27094
 20
3.41015
 30
0.0
 40
0
 41
0
  0
VERTEX
  8
0
 10
4.17356
 20
3.44054
 30
0.0
 40
0
 41
0
  0
SEQEND
 8
0
  0
POLYLINE
  8
0
 62
     0
 66
     1
 10
0
 20
0
 30
0.0
 40
0.283465
 41
0.283465
  0
VERTEX
  8
0
 10
4.27094
 20
3.41015
 30
0.0
 40
0.00393701
 41
0.00393701
  0
VERTEX
  8
0
 10
4.17356
 20
3.44054
 30
0.0
 40
0.00393701
 41
0.00393701
  0
SEQEND
 8
0
  0
POLYLINE
  8
0
 62
     0
 66
     1
 10
0
 20
0
 30
0.0
 70
     1
 40
0
 41
0
  0
VERTEX
  8
0
 10
4.17356
 20
3.44054
 30
0.0
 40
0
 41
0
  0
VERTEX
  8
0
 10
4.07688
 20
3.47319
 30
0.0
 40
0
 41
0
  0
SEQEND
 8
0
  0
POLYLINE
  8
0
 62
     0
 66
     1
 10
0
 20
0
 30
0.0
 40
0.283465
 41
0.283465
  0
VERTEX
  8
0
 10
4.17356
 20
3.44054
 30
0.0
 40
0.00393701
 41
0.00393701
  0
VERTEX
  8
0
 10
4.07688
 20
3.47319
 30
0.0
 40
0.00393701
 41
0.00393701
  0
SEQEND
 8
0
  0
POLYLINE
  8
0
 62
     0
 66
     1
 10
0
 20
0
 30
0.0
 70
     1
 40
0
 41
0
  0
VERTEX
  8
0
 10
4.07688
 20
3.47319
 30
0.0
 40
0
 41
0
  0
VERTEX
  8
0
 10
3.98101
 20
3.50814
 30
0.0
 40
0
 41
0
  0
SEQEND
 8
0
  0
POLYLINE
  8
0
 62
     0
 66
     1
 10
0
 20
0
 30
0.0
 40
0.283465
 41
0.283465
  0
VERTEX
  8
0
 10
4.07688
 20
3.47319
 30
0.0
 40
0.00393701
 41
0.00393701
  0
VERTEX
  8
0
 10
3.98101
 20
3.50814
 30
0.0
 40
0.00393701
 41
0.00393701
  0
SEQEND
 8
0
  0
POLYLINE
  8
0
 62
     0
 66
     1
 10
0
 20
0
 30
0.0
 70
     1
 40
0
 41
0
  0
VERTEX
  8
0
 10
3.98101
 20
3.50814
 30
0.0
 40
0
 41
0
  0
VERTEX
  8
0
 10
3.88601
 20
3.54531
 30
0.0
 40
0
 41
0
  0
SEQEND
 8
0
  0
POLYLINE
  8
0
 62
     0
 66
     1
 10
0
 20
0
 30
0.0
 40
0.283465
 41
0.283465
  0
VERTEX
  8
0
 10
3.98101
 20
3.50814
 30
0.0
 40
0.00393701
 41
0.00393701
  0
VERTEX
  8
0
 10
3.88601
 20
3.54531
 30
0.0
 40
0.00393701
 41
0.00393701
  0
SEQEND
 8
0
  0
POLYLINE
  8
0
 62
     0
 66
     1
 10
0
 20
0
 30
0.0
 70
     1
 40
0
 41
0
  0
VERTEX
  8
0
 10
3.88601
 20
3.54531
 30
0.0
 40
0
 41
0
  0
VERTEX
  8
0
 10
3.79189
 20
3.58475
 30
0.0
 40
0
 41
0
  0
SEQEND
 8
0
  0
POLYLINE
  8
0
 62
     0
 66
     1
 10
0
 20
0
 30
0.0
 40
0.283465
 41
0.283465
  0
VERTEX
  8
0
 10
3.88601
 20
3.54531
 30
0.0
 40
0.00393701
 41
0.00393701
  0
VERTEX
  8
0
 10
3.79189
 20
3.58475
 30
0.0
 40
0.00393701
 41
0.00393701
  0
SEQEND
 8
0
  0
POLYLINE
  8
0
 62
     0
 66
     1
 10
0
 20
0
 30
0.0
 70
     1
 40
0
 41
0
  0
VERTEX
  8
0
 10
3.79189
 20
3.58475
 30
0.0
 40
0
 41
0
  0
VERTEX
  8
0
 10
3.69874
 20
3.62636
 30
0.0
 40
0
 41
0
  0
SEQEND
 8
0
  0
POLYLINE
  8
0
 62
     0
 66
     1
 10
0
 20
0
 30
0.0
 40
0.283465
 41
0.283465
  0
VERTEX
  8
0
 10
3.79189
 20
3.58475
 30
0.0
 40
0.00393701
 41
0.00393701
  0
VERTEX
  8
0
 10
3.69874
 20
3.62636
 30
0.0
 40
0.00393701
 41
0.00393701
  0
SEQEND
 8
0
  0
POLYLINE
  8
0
 62
     0
 66
     1
 10
0
 20
0
 30
0.0
 70
     1
 40
0
 41
0
  0
VERTEX
  8
0
 10
3.69874
 20
3.62636
 30
0.0
 40
0
 41
0
  0
VERTEX
  8
0
 10
3.60656
 20
3.67019
 30
0.0
 40
0
 41
0
  0
SEQEND
 8
0
  0
POLYLINE
  8
0
 62
     0
 66
     1
 10
0
 20
0
 30
0.0
 40
0.283465
 41
0.283465
  0
VERTEX
  8
0
 10
3.69874
 20
3.62636
 30
0.0
 40
0.00393701
 41
0.00393701
  0
VERTEX
  8
0
 10
3.60656
 20
3.67019
 30
0.0
 40
0.00393701
 41
0.00393701
  0
SEQEND
 8
0
  0
POLYLINE
  8
0
 62
     0
 66
     1
 10
0
 20
0
 30
0.0
 70
     1
 40
0
 41
0
  0
VERTEX
  8
0
 10
3.60656
 20
3.67019
 30
0.0
 40
0
 41
0
  0
VERTEX
  8
0
 10
3.51546
 20
3.71615
 30
0.0
 40
0
 41
0
  0
SEQEND
 8
0
  0
POLYLINE
  8
0
 62
     0
 66
     1
 10
0
 20
0
 30
0.0
 40
0.283465
 41
0.283465
  0
VERTEX
  8
0
 10
3.60656
 20
3.67019
 30
0.0
 40
0.00393701
 41
0.00393701
  0
VERTEX
  8
0
 10
3.51546
 20
3.71615
 30
0.0
 40
0.00393701
 41
0.00393701
  0
SEQEND
 8
0
  0
POLYLINE
  8
0
 62
     0
 66
     1
 10
0
 20
0
 30
0.0
 70
     1
 40
0
 41
0
  0
VERTEX
  8
0
 10
3.51546
 20
3.71615
 30
0.0
 40
0
 41
0
  0
VERTEX
  8
0
 10
3.42546
 20
3.76426
 30
0.0
 40
0
 41
0
  0
SEQEND
 8
0
  0
POLYLINE
  8
0
 62
     0
 66
     1
 10
0
 20
0
 30
0.0
 40
0.283465
 41
0.283465
  0
VERTEX
  8
0
 10
3.51546
 20
3.71615
 30
0.0
 40
0.00393701
 41
0.00393701
  0
VERTEX
  8
0
 10
3.42546
 20
3.76426
 30
0.0
 40
0.00393701
 41
0.00393701
  0
SEQEND
 8
0
  0
POLYLINE
  8
0
 62
     0
 66
     1
 10
0
 20
0
 30
0.0
 70
     1
 40
0
 41
0
  0
VERTEX
  8
0
 10
3.42546
 20
3.76426
 30
0.0
 40
0
 41
0
  0
VERTEX
  8
0
 10
3.33664
 20
3.81446
 30
0.0
 40
0
 41
0
  0
SEQEND
 8
0
  0
POLYLINE
  8
0
 62
     0
 66
     1
 10
0
 20
0
 30
0.0
 40
0.283465
 41
0.283465
  0
VERTEX
  8
0
 10
3.42546
 20
3.76426
 30
0.0
 40
0.00393701
 41
0.00393701
  0
VERTEX
  8
0
 10
3.33664
 20
3.81446
 30
0.0
 40
0.00393701
 41
0.00393701
  0
SEQEND
 8
0
  0
POLYLINE
  8
0
 62
     0
 66
     1
 10
0
 20
0
 30
0.0
 70
     1
 40
0
 41
0
  0
VERTEX
  8
0
 10
3.33664
 20
3.81446
 30
0.0
 40
0
 41
0
  0
VERTEX
  8
0
 10
3.24903
 20
3.86675
 30
0.0
 40
0
 41
0
  0
SEQEND
 8
0
  0
POLYLINE
  8
0
 62
     0
 66
     1
 10
0
 20
0
 30
0.0
 40
0.283465
 41
0.283465
  0
VERTEX
  8
0
 10
3.33664
 20
3.81446
 30
0.0
 40
0.00393701
 41
0.00393701
  0
VERTEX
  8
0
 10
3.24903
 20
3.86675
 30
0.0
 40
0.00393701
 41
0.00393701
  0
SEQEND
 8
0
  0
POLYLINE
  8
0
 62
     0
 66
     1
 10
0
 20
0
 30
0.0
 70
     1
 40
0
 41
0
  0
VERTEX
  8
0
 10
3.24903
 20
3.86675
 30
0.0
 40
0
 41
0
  0
VERTEX
  8
0
 10
3.16265
 20
3.92106
 30
0.0
 40
0
 41
0
  0
SEQEND
 8
0
  0
POLYLINE
  8
0
 62
     0
 66
     1
 10
0
 20
0
 30
0.0
 40
0.283465
 41
0.283465
  0
VERTEX
  8
0
 10
3.24903
 20
3.86675
 30
0.0
 40
0.00393701
 41
0.00393701
  0
VERTEX
  8
0
 10
3.16265
 20
3.92106
 30
0.0
 40
0.00393701
 41
0.00393701
  0
SEQEND
 8
0
  0
POLYLINE
  8
0
 62
     0
 66
     1
 10
0
 20
0
 30
0.0
 70
     1
 40
0
 41
0
  0
VERTEX
  8
0
 10
3.16265
 20
3.92106
 30
0.0
 40
0
 41
0
  0
VERTEX
  8
0
 10
3.07758
 20
3.97743
 30
0.0
 40
0
 41
0
  0
SEQEND
 8
0
  0
POLYLINE
  8
0
 62
     0
 66
     1
 10
0
 20
0
 30
0.0
 40
0.283465
 41
0.283465
  0
VERTEX
  8
0
 10
3.16265
 20
3.92106
 30
0.0
 40
0.00393701
 41
0.00393701
  0
VERTEX
  8
0
 10
3.07758
 20
3.97743
 30
0.0
 40
0.00393701
 41
0.00393701
  0
SEQEND
 8
0
  0
POLYLINE
  8
0
 62
     0
 66
     1
 10
0
 20
0
 30
0.0
 70
     1
 40
0
 41
0
  0
VERTEX
  8
0
 10
3.07758
 20
3.97743
 30
0.0
 40
0
 41
0
  0
VERTEX
  8
0
 10
2.99388
 20
4.03575
 30
0.0
 40
0
 41
0
  0
SEQEND
 8
0
  0
POLYLINE
  8
0
 62
     0
 66
     1
 10
0
 20
0
 30
0.0
 40
0.283465
 41
0.283465
  0
VERTEX
  8
0
 10
3.07758
 20
3.97743
 30
0.0
 40
0.00393701
 41
0.00393701
  0
VERTEX
  8
0
 10
2.99388
 20
4.03575
 30
0.0
 40
0.00393701
 41
0.00393701
  0
SEQEND
 8
0
  0
POLYLINE
  8
0
 62
     0
 66
     1
 10
0
 20
0
 30
0.0
 70
     1
 40
0
 41
0
  0
VERTEX
  8
0
 10
2.99388
 20
4.03575
 30
0.0
 40
0
 41
0
  0
VERTEX
  8
0
 10
2.91157
 20
4.09608
 30
0.0
 40
0
 41
0
  0
SEQEND
 8
0
  0
POLYLINE
  8
0
 62
     0
 66
     1
 10
0
 20
0
 30
0.0
 40
0.283465
 41
0.283465
  0
VERTEX
  8
0
 10
2.99388
 20
4.03575
 30
0.0
 40
0.00393701
 41
0.00393701
  0
VERTEX
  8
0
 10
2.91157
 20
4.09608
 30
0.0
 40
0.00393701
 41
0.00393701
  0
SEQEND
 8
0
  0
POLYLINE
  8
0
 62
     0
 66
     1
 10
0
 20
0
 30
0.0
 70
     1
 40
0
 41
0
  0
VERTEX
  8
0
 10
2.91157
 20
4.09608
 30
0.0
 40
0
 41
0
  0
VERTEX
  8
0
 10
2.83068
 20
4.15831
 30
0.0
 40
0
 41
0
  0
SEQEND
 8
0
  0
POLYLINE
  8
0
 62
     0
 66
     1
 10
0
 20
0
 30
0.0
 40
0.283465
 41
0.283465
  0
VERTEX
  8
0
 10
2.91157
 20
4.09608
 30
0.0
 40
0.00393701
 41
0.00393701
  0
VERTEX
  8
0
 10
2.83068
 20
4.15831
 30
0.0
 40
0.00393701
 41
0.00393701
  0
SEQEND
 8
0
  0
POLYLINE
  8
0
 62
     0
 66
     1
 10
0
 20
0
 30
0.0
 70
     1
 40
0
 41
0
  0
VERTEX
  8
0
 10
2.83068
 20
4.15831
 30
0.0
 40
0
 41
0
  0
VERTEX
  8
0
 10
2.75131
 20
4.22239
 30
0.0
 40
0
 41
0
  0
SEQEND
 8
0
  0
POLYLINE
  8
0
 62
     0
 66
     1
 10
0
 20
0
 30
0.0
 40
0.283465
 41
0.283465
  0
VERTEX
  8
0
 10
2.83068
 20
4.15831
 30
0.0
 40
0.00393701
 41
0.00393701
  0
VERTEX
  8
0
 10
2.75131
 20
4.22239
 30
0.0
 40
0.00393701
 41
0.00393701
  0
SEQEND
 8
0
  0
POLYLINE
  8
0
 62
     0
 66
     1
 10
0
 20
0
 30
0.0
 70
     1
 40
0
 41
0
  0
VERTEX
  8
0
 10
2.75131
 20
4.22239
 30
0.0
 40
0
 41
0
  0
VERTEX
  8
0
 10
2.67344
 20
4.28836
 30
0.0
 40
0
 41
0
  0
SEQEND
 8
0
  0
POLYLINE
  8
0
 62
     0
 66
     1
 10
0
 20
0
 30
0.0
 40
0.283465
 41
0.283465
  0
VERTEX
  8
0
 10
2.75131
 20
4.22239
 30
0.0
 40
0.00393701
 41
0.00393701
  0
VERTEX
  8
0
 10
2.67344
 20
4.28836
 30
0.0
 40
0.00393701
 41
0.00393701
  0
SEQEND
 8
0
  0
POLYLINE
  8
0
 62
     0
 66
     1
 10
0
 20
0
 30
0.0
 70
     1
 40
0
 41
0
  0
VERTEX
  8
0
 10
2.67344
 20
4.28836
 30
0.0
 40
0
 41
0
  0
VERTEX
  8
0
 10
2.59717
 20
4.35612
 30
0.0
 40
0
 41
0
  0
SEQEND
 8
0
  0
POLYLINE
  8
0
 62
     0
 66
     1
 10
0
 20
0
 30
0.0
 40
0.283465
 41
0.283465
  0
VERTEX
  8
0
 10
2.67344
 20
4.28836
 30
0.0
 40
0.00393701
 41
0.00393701
  0
VERTEX
  8
0
 10
2.59717
 20
4.35612
 30
0.0
 40
0.00393701
 41
0.00393701
  0
SEQEND
 8
0
  0
POLYLINE
  8
0
 62
     0
 66
     1
 10
0
 20
0
 30
0.0
 70
     1
 40
0
 41
0
  0
VERTEX
  8
0
 10
2.59717
 20
4.35612
 30
0.0
 40
0
 41
0
  0
VERTEX
  8
0
 10
2.52251
 20
4.42572
 30
0.0
 40
0
 41
0
  0
SEQEND
 8
0
  0
POLYLINE
  8
0
 62
     0
 66
     1
 10
0
 20
0
 30
0.0
 40
0.283465
 41
0.283465
  0
VERTEX
  8
0
 10
2.59717
 20
4.35612
 30
0.0
 40
0.00393701
 41
0.00393701
  0
VERTEX
  8
0
 10
2.52251
 20
4.42572
 30
0.0
 40
0.00393701
 41
0.00393701
  0
SEQEND
 8
0
  0
POLYLINE
  8
0
 62
     0
 66
     1
 10
0
 20
0
 30
0.0
 70
     1
 40
0
 41
0
  0
VERTEX
  8
0
 10
2.52251
 20
4.42572
 30
0.0
 40
0
 41
0
  0
VERTEX
  8
0
 10
2.44954
 20
4.49701
 30
0.0
 40
0
 41
0
  0
SEQEND
 8
0
  0
POLYLINE
  8
0
 62
     0
 66
     1
 10
0
 20
0
 30
0.0
 40
0.283465
 41
0.283465
  0
VERTEX
  8
0
 10
2.52251
 20
4.42572
 30
0.0
 40
0.00393701
 41
0.00393701
  0
VERTEX
  8
0
 10
2.44954
 20
4.49701
 30
0.0
 40
0.00393701
 41
0.00393701
  0
SEQEND
 8
0
  0
POLYLINE
  8
0
 62
     0
 66
     1
 10
0
 20
0
 30
0.0
 70
     1
 40
0
 41
0
  0
VERTEX
  8
0
 10
8.6614
 20
7.55931
 30
0.0
 40
0
 41
0
  0
VERTEX
  8
0
 10
8.66054
 20
7.48508
 30
0.0
 40
0
 41
0
  0
SEQEND
 8
0
  0
POLYLINE
  8
0
 62
     0
 66
     1
 10
0
 20
0
 30
0.0
 40
0.283465
 41
0.283465
  0
VERTEX
  8
0
 10
8.6614
 20
7.55931
 30
0.0
 40
0.00393701
 41
0.00393701
  0
VERTEX
  8
0
 10
8.66054
 20
7.48508
 30
0.0
 40
0.00393701
 41
0.00393701
  0
SEQEND
 8
0
  0
POLYLINE
  8
0
 62
     0
 66
     1
 10
0
 20
0
 30
0.0
 70
     1
 40
0
 41
0
  0
VERTEX
  8
0
 10
8.66054
 20
7.48508
 30
0.0
 40
0
 41
0
  0
VERTEX
  8
0
 10
8.65793
 20
7.41092
 30
0.0
 40
0
 41
0
  0
SEQEND
 8
0
  0
POLYLINE
  8
0
 62
     0
 66
     1
 10
0
 20
0
 30
0.0
 40
0.283465
 41
0.283465
  0
VERTEX
  8
0
 10
8.66054
 20
7.48508
 30
0.0
 40
0.00393701
 41
0.00393701
  0
VERTEX
  8
0
 10
8.65793
 20
7.41092
 30
0.0
 40
0.00393701
 41
0.00393701
  0
SEQEND
 8
0
  0
POLYLINE
  8
0
 62
     0
 66
     1
 10
0
 20
0
 30
0.0
 70
     1
 40
0
 41
0
  0
VERTEX
  8
0
 10
8.65793
 20
7.41092
 30
0.0
 40
0
 41
0
  0
VERTEX
  8
0
 10
8.65354
 20
7.33681
 30
0.0
 40
0
 41
0
  0
SEQEND
 8
0
  0
POLYLINE
  8
0
 62
     0
 66
     1
 10
0
 20
0
 30
0.0
 40
0.283465
 41
0.283465
  0
VERTEX
  8
0
 10
8.65793
 20
7.41092
 30
0.0
 40
0.00393701
 41
0.00393701
  0
VERTEX
  8
0
 10
8.65354
 20
7.33681
 30
0.0
 40
0.00393701
 41
0.00393701
  0
SEQEND
 8
0
  0
POLYLINE
  8
0
 62
     0
 66
     1
 10
0
 20
0
 30
0.0
 70
     1
 40
0
 41
0
  0
VERTEX
  8
0
 10
8.65354
 20
7.33681
 30
0.0
 40
0
 41
0
  0
VERTEX
  8
0
 10
8.64746
 20
7.26286
 30
0.0
 40
0
 41
0
  0
SEQEND
 8
0
  0
POLYLINE
  8
0
 62
     0
 66
     1
 10
0
 20
0
 30
0.0
 40
0.283465
 41
0.283465
  0
VERTEX
  8
0
 10
8.65354
 20
7.33681
 30
0.0
 40
0.00393701
 41
0.00393701
  0
VERTEX
  8
0
 10
8.64746
 20
7.26286
 30
0.0
 40
0.00393701
 41
0.00393701
  0
SEQEND
 8
0
  0
POLYLINE
  8
0
 62
     0
 66
     1
 10
0
 20
0
 30
0.0
 70
     1
 40
0
 41
0
  0
VERTEX
  8
0
 10
8.64746
 20
7.26286
 30
0.0
 40
0
 41
0
  0
VERTEX
  8
0
 10
8.6396
 20
7.18907
 30
0.0
 40
0
 41
0
  0
SEQEND
 8
0
  0
POLYLINE
  8
0
 62
     0
 66
     1
 10
0
 20
0
 30
0.0
 40
0.283465
 41
0.283465
  0
VERTEX
  8
0
 10
8.64746
 20
7.26286
 30
0.0
 40
0.00393701
 41
0.00393701
  0
VERTEX
  8
0
 10
8.6396
 20
7.18907
 30
0.0
 40
0.00393701
 41
0.00393701
  0
SEQEND
 8
0
  0
POLYLINE
  8
0
 62
     0
 66
     1
 10
0
 20
0
 30
0.0
 70
     1
 40
0
 41
0
  0
VERTEX
  8
0
 10
8.6396
 20
7.18907
 30
0.0
 40
0
 41
0
  0
VERTEX
  8
0
 10
8.62999
 20
7.1155
 30
0.0
 40
0
 41
0
  0
SEQEND
 8
0
  0
POLYLINE
  8
0
 62
     0
 66
     1
 10
0
 20
0
 30
0.0
 40
0.283465
 41
0.283465
  0
VERTEX
  8
0
 10
8.6396
 20
7.18907
 30
0.0
 40
0.00393701
 41
0.00393701
  0
VERTEX
  8
0
 10
8.62999
 20
7.1155
 30
0.0
 40
0.00393701
 41
0.00393701
  0
SEQEND
 8
0
  0
POLYLINE
  8
0
 62
     0
 66
     1
 10
0
 20
0
 30
0.0
 70
     1
 40
0
 41
0
  0
VERTEX
  8
0
 10
8.62999
 20
7.1155
 30
0.0
 40
0
 41
0
  0
VERTEX
  8
0
 10
8.61865
 20
7.04215
 30
0.0
 40
0
 41
0
  0
SEQEND
 8
0
  0
POLYLINE
  8
0
 62
     0
 66
     1
 10
0
 20
0
 30
0.0
 40
0.283465
 41
0.283465
  0
VERTEX
  8
0
 10
8.62999
 20
7.1155
 30
0.0
 40
0.00393701
 41
0.00393701
  0
VERTEX
  8
0
 10
8.61865
 20
7.04215
 30
0.0
 40
0.00393701
 41
0.00393701
  0
SEQEND
 8
0
  0
POLYLINE
  8
0
 62
     0
 66
     1
 10
0
 20
0
 30
0.0
 70
     1
 40
0
 41
0
  0
VERTEX
  8
0
 10
8.61865
 20
7.04215
 30
0.0
 40
0
 41
0
  0
VERTEX
  8
0
 10
8.60562
 20
6.96907
 30
0.0
 40
0
 41
0
  0
SEQEND
 8
0
  0
POLYLINE
  8
0
 62
     0
 66
     1
 10
0
 20
0
 30
0.0
 40
0.283465
 41
0.283465
  0
VERTEX
  8
0
 10
8.61865
 20
7.04215
 30
0.0
 40
0.00393701
 41
0.00393701
  0
VERTEX
  8
0
 10
8.60562
 20
6.96907
 30
0.0
 40
0.00393701
 41
0.00393701
  0
SEQEND
 8
0
  0
POLYLINE
  8
0
 62
     0
 66
     1
 10
0
 20
0
 30
0.0
 70
     1
 40
0
 41
0
  0
VERTEX
  8
0
 10
8.60562
 20
6.96907
 30
0.0
 40
0
 41
0
  0
VERTEX
  8
0
 10
8.59088
 20
6.89638
 30
0.0
 40
0
 41
0
  0
SEQEND
 8
0
  0
POLYLINE
  8
0
 62
     0
 66
     1
 10
0
 20
0
 30
0.0
 40
0.283465
 41
0.283465
  0
VERTEX
  8
0
 10
8.60562
 20
6.96907
 30
0.0
 40
0.00393701
 41
0.00393701
  0
VERTEX
  8
0
 10
8.59088
 20
6.89638
 30
0.0
 40
0.00393701
 41
0.00393701
  0
SEQEND
 8
0
  0
POLYLINE
  8
0
 62
     0
 66
     1
 10
0
 20
0
 30
0.0
 70
     1
 40
0
 41
0
  0
VERTEX
  8
0
 10
8.59088
 20
6.89638
 30
0.0
 40
0
 41
0
  0
VERTEX
  8
0
 10
8.57437
 20
6.824
 30
0.0
 40
0
 41
0
  0
SEQEND
 8
0
  0
POLYLINE
  8
0
 62
     0
 66
     1
 10
0
 20
0
 30
0.0
 40
0.283465
 41
0.283465
  0
VERTEX
  8
0
 10
8.59088
 20
6.89638
 30
0.0
 40
0.00393701
 41
0.00393701
  0
VERTEX
  8
0
 10
8.57437
 20
6.824
 30
0.0
 40
0.00393701
 41
0.00393701
  0
SEQEND
 8
0
  0
POLYLINE
  8
0
 62
     0
 66
     1
 10
0
 20
0
 30
0.0
 70
     1
 40
0
 41
0
  0
VERTEX
  8
0
 10
8.57437
 20
6.824
 30
0.0
 40
0
 41
0
  0
VERTEX
  8
0
 10
8.55621
 20
6.75206
 30
0.0
 40
0
 41
0
  0
SEQEND
 8
0
  0
POLYLINE
  8
0
 62
     0
 66
     1
 10
0
 20
0
 30
0.0
 40
0.283465
 41
0.283465
  0
VERTEX
  8
0
 10
8.57437
 20
6.824
 30
0.0
 40
0.00393701
 41
0.00393701
  0
VERTEX
  8
0
 10
8.55621
 20
6.75206
 30
0.0
 40
0.00393701
 41
0.00393701
  0
SEQEND
 8
0
  0
POLYLINE
  8
0
 62
     0
 66
     1
 10
0
 20
0
 30
0.0
 70
     1
 40
0
 41
0
  0
VERTEX
  8
0
 10
8.55621
 20
6.75206
 30
0.0
 40
0
 41
0
  0
VERTEX
  8
0
 10
8.53635
 20
6.68056
 30
0.0
 40
0
 41
0
  0
SEQEND
 8
0
  0
POLYLINE
  8
0
 62
     0
 66
     1
 10
0
 20
0
 30
0.0
 40
0.283465
 41
0.283465
  0
VERTEX
  8
0
 10
8.55621
 20
6.75206
 30
0.0
 40
0.00393701
 41
0.00393701
  0
VERTEX
  8
0
 10
8.53635
 20
6.68056
 30
0.0
 40
0.00393701
 41
0.00393701
  0
SEQEND
 8
0
  0
POLYLINE
  8
0
 62
     0
 66
     1
 10
0
 20
0
 30
0.0
 70
     1
 40
0
 41
0
  0
VERTEX
  8
0
 10
8.53635
 20
6.68056
 30
0.0
 40
0
 41
0
  0
VERTEX
  8
0
 10
8.51481
 20
6.60954
 30
0.0
 40
0
 41
0
  0
SEQEND
 8
0
  0
POLYLINE
  8
0
 62
     0
 66
     1
 10
0
 20
0
 30
0.0
 40
0.283465
 41
0.283465
  0
VERTEX
  8
0
 10
8.53635
 20
6.68056
 30
0.0
 40
0.00393701
 41
0.00393701
  0
VERTEX
  8
0
 10
8.51481
 20
6.60954
 30
0.0
 40
0.00393701
 41
0.00393701
  0
SEQEND
 8
0
  0
POLYLINE
  8
0
 62
     0
 66
     1
 10
0
 20
0
 30
0.0
 70
     1
 40
0
 41
0
  0
VERTEX
  8
0
 10
8.51481
 20
6.60954
 30
0.0
 40
0
 41
0
  0
VERTEX
  8
0
 10
8.4916
 20
6.53907
 30
0.0
 40
0
 41
0
  0
SEQEND
 8
0
  0
POLYLINE
  8
0
 62
     0
 66
     1
 10
0
 20
0
 30
0.0
 40
0.283465
 41
0.283465
  0
VERTEX
  8
0
 10
8.51481
 20
6.60954
 30
0.0
 40
0.00393701
 41
0.00393701
  0
VERTEX
  8
0
 10
8.4916
 20
6.53907
 30
0.0
 40
0.00393701
 41
0.00393701
  0
SEQEND
 8
0
  0
POLYLINE
  8
0
 62
     0
 66
     1
 10
0
 20
0
 30
0.0
 70
     1
 40
0
 41
0
  0
VERTEX
  8
0
 10
8.4916
 20
6.53907
 30
0.0
 40
0
 41
0
  0
VERTEX
  8
0
 10
8.46674
 20
6.46913
 30
0.0
 40
0
 41
0
  0
SEQEND
 8
0
  0
POLYLINE
  8
0
 62
     0
 66
     1
 10
0
 20
0
 30
0.0
 40
0.283465
 41
0.283465
  0
VERTEX
  8
0
 10
8.4916
 20
6.53907
 30
0.0
 40
0.00393701
 41
0.00393701
  0
VERTEX
  8
0
 10
8.46674
 20
6.46913
 30
0.0
 40
0.00393701
 41
0.00393701
  0
SEQEND
 8
0
  0
POLYLINE
  8
0
 62
     0
 66
     1
 10
0
 20
0
 30
0.0
 70
     1
 40
0
 41
0
  0
VERTEX
  8
0
 10
8.46674
 20
6.46913
 30
0.0
 40
0
 41
0
  0
VERTEX
  8
0
 10
8.44026
 20
6.39985
 30
0.0
 40
0
 41
0
  0
SEQEND
 8
0
  0
POLYLINE
  8
0
 62
     0
 66
     1
 10
0
 20
0
 30
0.0
 40
0.283465
 41
0.283465
  0
VERTEX
  8
0
 10
8.46674
 20
6.46913
 30
0.0
 40
0.00393701
 41
0.00393701
  0
VERTEX
  8
0
 10
8.44026
 20
6.39985
 30
0.0
 40
0.00393701
 41
0.00393701
  0
SEQEND
 8
0
  0
POLYLINE
  8
0
 62
     0
 66
     1
 10
0
 20
0
 30
0.0
 70
     1
 40
0
 41
0
  0
VERTEX
  8
0
 10
8.44026
 20
6.39985
 30
0.0
 40
0
 41
0
  0
VERTEX
  8
0
 10
8.41211
 20
6.33117
 30
0.0
 40
0
 41
0
  0
SEQEND
 8
0
  0
POLYLINE
  8
0
 62
     0
 66
     1
 10
0
 20
0
 30
0.0
 40
0.283465
 41
0.283465
  0
VERTEX
  8
0
 10
8.44026
 20
6.39985
 30
0.0
 40
0.00393701
 41
0.00393701
  0
VERTEX
  8
0
 10
8.41211
 20
6.33117
 30
0.0
 40
0.00393701
 41
0.00393701
  0
SEQEND
 8
0
  0
POLYLINE
  8
0
 62
     0
 66
     1
 10
0
 20
0
 30
0.0
 70
     1
 40
0
 41
0
  0
VERTEX
  8
0
 10
8.41211
 20
6.33117
 30
0.0
 40
0
 41
0
  0
VERTEX
  8
0
 10
8.38238
 20
6.26318
 30
0.0
 40
0
 41
0
  0
SEQEND
 8
0
  0
POLYLINE
  8
0
 62
     0
 66
     1
 10
0
 20
0
 30
0.0
 40
0.283465
 41
0.283465
  0
VERTEX
  8
0
 10
8.41211
 20
6.33117
 30
0.0
 40
0.00393701
 41
0.00393701
  0
VERTEX
  8
0
 10
8.38238
 20
6.26318
 30
0.0
 40
0.00393701
 41
0.00393701
  0
SEQEND
 8
0
  0
POLYLINE
  8
0
 62
     0
 66
     1
 10
0
 20
0
 30
0.0
 70
     1
 40
0
 41
0
  0
VERTEX
  8
0
 10
8.38238
 20
6.26318
 30
0.0
 40
0
 41
0
  0
VERTEX
  8
0
 10
8.35101
 20
6.1959
 30
0.0
 40
0
 41
0
  0
SEQEND
 8
0
  0
POLYLINE
  8
0
 62
     0
 66
     1
 10
0
 20
0
 30
0.0
 40
0.283465
 41
0.283465
  0
VERTEX
  8
0
 10
8.38238
 20
6.26318
 30
0.0
 40
0.00393701
 41
0.00393701
  0
VERTEX
  8
0
 10
8.35101
 20
6.1959
 30
0.0
 40
0.00393701
 41
0.00393701
  0
SEQEND
 8
0
  0
POLYLINE
  8
0
 62
     0
 66
     1
 10
0
 20
0
 30
0.0
 70
     1
 40
0
 41
0
  0
VERTEX
  8
0
 10
8.35101
 20
6.1959
 30
0.0
 40
0
 41
0
  0
VERTEX
  8
0
 10
8.31814
 20
6.12939
 30
0.0
 40
0
 41
0
  0
SEQEND
 8
0
  0
POLYLINE
  8
0
 62
     0
 66
     1
 10
0
 20
0
 30
0.0
 40
0.283465
 41
0.283465
  0
VERTEX
  8
0
 10
8.35101
 20
6.1959
 30
0.0
 40
0.00393701
 41
0.00393701
  0
VERTEX
  8
0
 10
8.31814
 20
6.12939
 30
0.0
 40
0.00393701
 41
0.00393701
  0
SEQEND
 8
0
  0
POLYLINE
  8
0
 62
     0
 66
     1
 10
0
 20
0
 30
0.0
 70
     1
 40
0
 41
0
  0
VERTEX
  8
0
 10
8.31814
 20
6.12939
 30
0.0
 40
0
 41
0
  0
VERTEX
  8
0
 10
8.28364
 20
6.06364
 30
0.0
 40
0
 41
0
  0
SEQEND
 8
0
  0
POLYLINE
  8
0
 62
     0
 66
     1
 10
0
 20
0
 30
0.0
 40
0.283465
 41
0.283465
  0
VERTEX
  8
0
 10
8.31814
 20
6.12939
 30
0.0
 40
0.00393701
 41
0.00393701
  0
VERTEX
  8
0
 10
8.28364
 20
6.06364
 30
0.0
 40
0.00393701
 41
0.00393701
  0
SEQEND
 8
0
  0
POLYLINE
  8
0
 62
     0
 66
     1
 10
0
 20
0
 30
0.0
 70
     1
 40
0
 41
0
  0
VERTEX
  8
0
 10
8.28364
 20
6.06364
 30
0.0
 40
0
 41
0
  0
VERTEX
  8
0
 10
8.24767
 20
5.99875
 30
0.0
 40
0
 41
0
  0
SEQEND
 8
0
  0
POLYLINE
  8
0
 62
     0
 66
     1
 10
0
 20
0
 30
0.0
 40
0.283465
 41
0.283465
  0
VERTEX
  8
0
 10
8.28364
 20
6.06364
 30
0.0
 40
0.00393701
 41
0.00393701
  0
VERTEX
  8
0
 10
8.24767
 20
5.99875
 30
0.0
 40
0.00393701
 41
0.00393701
  0
SEQEND
 8
0
  0
POLYLINE
  8
0
 62
     0
 66
     1
 10
0
 20
0
 30
0.0
 70
     1
 40
0
 41
0
  0
VERTEX
  8
0
 10
8.24767
 20
5.99875
 30
0.0
 40
0
 41
0
  0
VERTEX
  8
0
 10
8.21013
 20
5.93474
 30
0.0
 40
0
 41
0
  0
SEQEND
 8
0
  0
POLYLINE
  8
0
 62
     0
 66
     1
 10
0
 20
0
 30
0.0
 40
0.283465
 41
0.283465
  0
VERTEX
  8
0
 10
8.24767
 20
5.99875
 30
0.0
 40
0.00393701
 41
0.00393701
  0
VERTEX
  8
0
 10
8.21013
 20
5.93474
 30
0.0
 40
0.00393701
 41
0.00393701
  0
SEQEND
 8
0
  0
POLYLINE
  8
0
 62
     0
 66
     1
 10
0
 20
0
 30
0.0
 70
     1
 40
0
 41
0
  0
VERTEX
  8
0
 10
8.21013
 20
5.93474
 30
0.0
 40
0
 41
0
  0
VERTEX
  8
0
 10
8.17111
 20
5.87164
 30
0.0
 40
0
 41
0
  0
SEQEND
 8
0
  0
POLYLINE
  8
0
 62
     0
 66
     1
 10
0
 20
0
 30
0.0
 40
0.283465
 41
0.283465
  0
VERTEX
  8
0
 10
8.21013
 20
5.93474
 30
0.0
 40
0.00393701
 41
0.00393701
  0
VERTEX
  8
0
 10
8.17111
 20
5.87164
 30
0.0
 40
0.00393701
 41
0.00393701
  0
SEQEND
 8
0
  0
POLYLINE
  8
0
 62
     0
 66
     1
 10
0
 20
0
 30
0.0
 70
     1
 40
0
 41
0
  0
VERTEX
  8
0
 10
8.17111
 20
5.87164
 30
0.0
 40
0
 41
0
  0
VERTEX
  8
0
 10
8.13058
 20
5.80946
 30
0.0
 40
0
 41
0
  0
SEQEND
 8
0
  0
POLYLINE
  8
0
 62
     0
 66
     1
 10
0
 20
0
 30
0.0
 40
0.283465
 41
0.283465
  0
VERTEX
  8
0
 10
8.17111
 20
5.87164
 30
0.0
 40
0.00393701
 41
0.00393701
  0
VERTEX
  8
0
 10
8.13058
 20
5.80946
 30
0.0
 40
0.00393701
 41
0.00393701
  0
SEQEND
 8
0
  0
POLYLINE
  8
0
 62
     0
 66
     1
 10
0
 20
0
 30
0.0
 70
     1
 40
0
 41
0
  0
VERTEX
  8
0
 10
8.13058
 20
5.80946
 30
0.0
 40
0
 41
0
  0
VERTEX
  8
0
 10
8.08865
 20
5.74821
 30
0.0
 40
0
 41
0
  0
SEQEND
 8
0
  0
POLYLINE
  8
0
 62
     0
 66
     1
 10
0
 20
0
 30
0.0
 40
0.283465
 41
0.283465
  0
VERTEX
  8
0
 10
8.13058
 20
5.80946
 30
0.0
 40
0.00393701
 41
0.00393701
  0
VERTEX
  8
0
 10
8.08865
 20
5.74821
 30
0.0
 40
0.00393701
 41
0.00393701
  0
SEQEND
 8
0
  0
POLYLINE
  8
0
 62
     0
 66
     1
 10
0
 20
0
 30
0.0
 70
     1
 40
0
 41
0
  0
VERTEX
  8
0
 10
8.08865
 20
5.74821
 30
0.0
 40
0
 41
0
  0
VERTEX
  8
0
 10
8.04531
 20
5.68804
 30
0.0
 40
0
 41
0
  0
SEQEND
 8
0
  0
POLYLINE
  8
0
 62
     0
 66
     1
 10
0
 20
0
 30
0.0
 40
0.283465
 41
0.283465
  0
VERTEX
  8
0
 10
8.08865
 20
5.74821
 30
0.0
 40
0.00393701
 41
0.00393701
  0
VERTEX
  8
0
 10
8.04531
 20
5.68804
 30
0.0
 40
0.00393701
 41
0.00393701
  0
SEQEND
 8
0
  0
POLYLINE
  8
0
 62
     0
 66
     1
 10
0
 20
0
 30
0.0
 70
     1
 40
0
 41
0
  0
VERTEX
  8
0
 10
8.04531
 20
5.68804
 30
0.0
 40
0
 41
0
  0
VERTEX
  8
0
 10
8.00049
 20
5.62885
 30
0.0
 40
0
 41
0
  0
SEQEND
 8
0
  0
POLYLINE
  8
0
 62
     0
 66
     1
 10
0
 20
0
 30
0.0
 40
0.283465
 41
0.283465
  0
VERTEX
  8
0
 10
8.04531
 20
5.68804
 30
0.0
 40
0.00393701
 41
0.00393701
  0
VERTEX
  8
0
 10
8.00049
 20
5.62885
 30
0.0
 40
0.00393701
 41
0.00393701
  0
SEQEND
 8
0
  0
POLYLINE
  8
0
 62
     0
 66
     1
 10
0
 20
0
 30
0.0
 70
     1
 40
0
 41
0
  0
VERTEX
  8
0
 10
8.00049
 20
5.62885
 30
0.0
 40
0
 41
0
  0
VERTEX
  8
0
 10
7.95432
 20
5.57075
 30
0.0
 40
0
 41
0
  0
SEQEND
 8
0
  0
POLYLINE
  8
0
 62
     0
 66
     1
 10
0
 20
0
 30
0.0
 40
0.283465
 41
0.283465
  0
VERTEX
  8
0
 10
8.00049
 20
5.62885
 30
0.0
 40
0.00393701
 41
0.00393701
  0
VERTEX
  8
0
 10
7.95432
 20
5.57075
 30
0.0
 40
0.00393701
 41
0.00393701
  0
SEQEND
 8
0
  0
POLYLINE
  8
0
 62
     0
 66
     1
 10
0
 20
0
 30
0.0
 70
     1
 40
0
 41
0
  0
VERTEX
  8
0
 10
7.95432
 20
5.57075
 30
0.0
 40
0
 41
0
  0
VERTEX
  8
0
 10
7.90679
 20
5.51378
 30
0.0
 40
0
 41
0
  0
SEQEND
 8
0
  0
POLYLINE
  8
0
 62
     0
 66
     1
 10
0
 20
0
 30
0.0
 40
0.283465
 41
0.283465
  0
VERTEX
  8
0
 10
7.95432
 20
5.57075
 30
0.0
 40
0.00393701
 41
0.00393701
  0
VERTEX
  8
0
 10
7.90679
 20
5.51378
 30
0.0
 40
0.00393701
 41
0.00393701
  0
SEQEND
 8
0
  0
POLYLINE
  8
0
 62
     0
 66
     1
 10
0
 20
0
 30
0.0
 70
     1
 40
0
 41
0
  0
VERTEX
  8
0
 10
7.90679
 20
5.51378
 30
0.0
 40
0
 41
0
  0
VERTEX
  8
0
 10
7.85792
 20
5.4579
 30
0.0
 40
0
 41
0
  0
SEQEND
 8
0
  0
POLYLINE
  8
0
 62
     0
 66
     1
 10
0
 20
0
 30
0.0
 40
0.283465
 41
0.283465
  0
VERTEX
  8
0
 10
7.90679
 20
5.51378
 30
0.0
 40
0.00393701
 41
0.00393701
  0
VERTEX
  8
0
 10
7.85792
 20
5.4579
 30
0.0
 40
0.00393701
 41
0.00393701
  0
SEQEND
 8
0
  0
POLYLINE
  8
0
 62
     0
 66
     1
 10
0
 20
0
 30
0.0
 70
     1
 40
0
 41
0
  0
VERTEX
  8
0
 10
7.85792
 20
5.4579
 30
0.0
 40
0
 41
0
  0
VERTEX
  8
0
 10
7.80778
 20
5.40321
 30
0.0
 40
0
 41
0
  0
SEQEND
 8
0
  0
POLYLINE
  8
0
 62
     0
 66
     1
 10
0
 20
0
 30
0.0
 40
0.283465
 41
0.283465
  0
VERTEX
  8
0
 10
7.85792
 20
5.4579
 30
0.0
 40
0.00393701
 41
0.00393701
  0
VERTEX
  8
0
 10
7.80778
 20
5.40321
 30
0.0
 40
0.00393701
 41
0.00393701
  0
SEQEND
 8
0
  0
POLYLINE
  8
0
 62
     0
 66
     1
 10
0
 20
0
 30
0.0
 70
     1
 40
0
 41
0
  0
VERTEX
  8
0
 10
7.80778
 20
5.40321
 30
0.0
 40
0
 41
0
  0
VERTEX
  8
0
 10
7.75635
 20
5.34972
 30
0.0
 40
0
 41
0
  0
SEQEND
 8
0
  0
POLYLINE
  8
0
 62
     0
 66
     1
 10
0
 20
0
 30
0.0
 40
0.283465
 41
0.283465
  0
VERTEX
  8
0
 10
7.80778
 20
5.40321
 30
0.0
 40
0.00393701
 41
0.00393701
  0
VERTEX
  8
0
 10
7.75635
 20
5.34972
 30
0.0
 40
0.00393701
 41
0.00393701
  0
SEQEND
 8
0
  0
POLYLINE
  8
0
 62
     0
 66
     1
 10
0
 20
0
 30
0.0
 70
     1
 40
0
 41
0
  0
VERTEX
  8
0
 10
7.75635
 20
5.34972
 30
0.0
 40
0
 41
0
  0
VERTEX
  8
0
 10
7.70367
 20
5.29747
 30
0.0
 40
0
 41
0
  0
SEQEND
 8
0
  0
POLYLINE
  8
0
 62
     0
 66
     1
 10
0
 20
0
 30
0.0
 40
0.283465
 41
0.283465
  0
VERTEX
  8
0
 10
7.75635
 20
5.34972
 30
0.0
 40
0.00393701
 41
0.00393701
  0
VERTEX
  8
0
 10
7.70367
 20
5.29747
 30
0.0
 40
0.00393701
 41
0.00393701
  0
SEQEND
 8
0
  0
POLYLINE
  8
0
 62
     0
 66
     1
 10
0
 20
0
 30
0.0
 70
     1
 40
0
 41
0
  0
VERTEX
  8
0
 10
7.70367
 20
5.29747
 30
0.0
 40
0
 41
0
  0
VERTEX
  8
0
 10
7.64974
 20
5.24647
 30
0.0
 40
0
 41
0
  0
SEQEND
 8
0
  0
POLYLINE
  8
0
 62
     0
 66
     1
 10
0
 20
0
 30
0.0
 40
0.283465
 41
0.283465
  0
VERTEX
  8
0
 10
7.70367
 20
5.29747
 30
0.0
 40
0.00393701
 41
0.00393701
  0
VERTEX
  8
0
 10
7.64974
 20
5.24647
 30
0.0
 40
0.00393701
 41
0.00393701
  0
SEQEND
 8
0
  0
POLYLINE
  8
0
 62
     0
 66
     1
 10
0
 20
0
 30
0.0
 70
     1
 40
0
 41
0
  0
VERTEX
  8
0
 10
7.64974
 20
5.24647
 30
0.0
 40
0
 41
0
  0
VERTEX
  8
0
 10
7.59467
 20
5.19672
 30
0.0
 40
0
 41
0
  0
SEQEND
 8
0
  0
POLYLINE
  8
0
 62
     0
 66
     1
 10
0
 20
0
 30
0.0
 40
0.283465
 41
0.283465
  0
VERTEX
  8
0
 10
7.64974
 20
5.24647
 30
0.0
 40
0.00393701
 41
0.00393701
  0
VERTEX
  8
0
 10
7.59467
 20
5.19672
 30
0.0
 40
0.00393701
 41
0.00393701
  0
SEQEND
 8
0
  0
POLYLINE
  8
0
 62
     0
 66
     1
 10
0
 20
0
 30
0.0
 70
     1
 40
0
 41
0
  0
VERTEX
  8
0
 10
7.59467
 20
5.19672
 30
0.0
 40
0
 41
0
  0
VERTEX
  8
0
 10
7.53847
 20
5.14833
 30
0.0
 40
0
 41
0
  0
SEQEND
 8
0
  0
POLYLINE
  8
0
 62
     0
 66
     1
 10
0
 20
0
 30
0.0
 40
0.283465
 41
0.283465
  0
VERTEX
  8
0
 10
7.59467
 20
5.19672
 30
0.0
 40
0.00393701
 41
0.00393701
  0
VERTEX
  8
0
 10
7.53847
 20
5.14833
 30
0.0
 40
0.00393701
 41
0.00393701
  0
SEQEND
 8
0
  0
POLYLINE
  8
0
 62
     0
 66
     1
 10
0
 20
0
 30
0.0
 70
     1
 40
0
 41
0
  0
VERTEX
  8
0
 10
7.53847
 20
5.14833
 30
0.0
 40
0
 41
0
  0
VERTEX
  8
0
 10
7.48107
 20
5.10124
 30
0.0
 40
0
 41
0
  0
SEQEND
 8
0
  0
POLYLINE
  8
0
 62
     0
 66
     1
 10
0
 20
0
 30
0.0
 40
0.283465
 41
0.283465
  0
VERTEX
  8
0
 10
7.53847
 20
5.14833
 30
0.0
 40
0.00393701
 41
0.00393701
  0
VERTEX
  8
0
 10
7.48107
 20
5.10124
 30
0.0
 40
0.00393701
 41
0.00393701
  0
SEQEND
 8
0
  0
POLYLINE
  8
0
 62
     0
 66
     1
 10
0
 20
0
 30
0.0
 70
     1
 40
0
 41
0
  0
VERTEX
  8
0
 10
7.48107
 20
5.10124
 30
0.0
 40
0
 41
0
  0
VERTEX
  8
0
 10
7.42264
 20
5.0555
 30
0.0
 40
0
 41
0
  0
SEQEND
 8
0
  0
POLYLINE
  8
0
 62
     0
 66
     1
 10
0
 20
0
 30
0.0
 40
0.283465
 41
0.283465
  0
VERTEX
  8
0
 10
7.48107
 20
5.10124
 30
0.0
 40
0.00393701
 41
0.00393701
  0
VERTEX
  8
0
 10
7.42264
 20
5.0555
 30
0.0
 40
0.00393701
 41
0.00393701
  0
SEQEND
 8
0
  0
POLYLINE
  8
0
 62
     0
 66
     1
 10
0
 20
0
 30
0.0
 70
     1
 40
0
 41
0
  0
VERTEX
  8
0
 10
7.42264
 20
5.0555
 30
0.0
 40
0
 41
0
  0
VERTEX
  8
0
 10
7.36313
 20
5.01118
 30
0.0
 40
0
 41
0
  0
SEQEND
 8
0
  0
POLYLINE
  8
0
 62
     0
 66
     1
 10
0
 20
0
 30
0.0
 40
0.283465
 41
0.283465
  0
VERTEX
  8
0
 10
7.42264
 20
5.0555
 30
0.0
 40
0.00393701
 41
0.00393701
  0
VERTEX
  8
0
 10
7.36313
 20
5.01118
 30
0.0
 40
0.00393701
 41
0.00393701
  0
SEQEND
 8
0
  0
POLYLINE
  8
0
 62
     0
 66
     1
 10
0
 20
0
 30
0.0
 70
     1
 40
0
 41
0
  0
VERTEX
  8
0
 10
7.36313
 20
5.01118
 30
0.0
 40
0
 41
0
  0
VERTEX
  8
0
 10
7.30257
 20
4.96826
 30
0.0
 40
0
 41
0
  0
SEQEND
 8
0
  0
POLYLINE
  8
0
 62
     0
 66
     1
 10
0
 20
0
 30
0.0
 40
0.283465
 41
0.283465
  0
VERTEX
  8
0
 10
7.36313
 20
5.01118
 30
0.0
 40
0.00393701
 41
0.00393701
  0
VERTEX
  8
0
 10
7.30257
 20
4.96826
 30
0.0
 40
0.00393701
 41
0.00393701
  0
SEQEND
 8
0
  0
POLYLINE
  8
0
 62
     0
 66
     1
 10
0
 20
0
 30
0.0
 70
     1
 40
0
 41
0
  0
VERTEX
  8
0
 10
7.30257
 20
4.96826
 30
0.0
 40
0
 41
0
  0
VERTEX
  8
0
 10
7.241
 20
4.92681
 30
0.0
 40
0
 41
0
  0
SEQEND
 8
0
  0
POLYLINE
  8
0
 62
     0
 66
     1
 10
0
 20
0
 30
0.0
 40
0.283465
 41
0.283465
  0
VERTEX
  8
0
 10
7.30257
 20
4.96826
 30
0.0
 40
0.00393701
 41
0.00393701
  0
VERTEX
  8
0
 10
7.241
 20
4.92681
 30
0.0
 40
0.00393701
 41
0.00393701
  0
SEQEND
 8
0
  0
POLYLINE
  8
0
 62
     0
 66
     1
 10
0
 20
0
 30
0.0
 70
     1
 40
0
 41
0
  0
VERTEX
  8
0
 10
7.241
 20
4.92681
 30
0.0
 40
0
 41
0
  0
VERTEX
  8
0
 10
7.1785
 20
4.88683
 30
0.0
 40
0
 41
0
  0
SEQEND
 8
0
  0
POLYLINE
  8
0
 62
     0
 66
     1
 10
0
 20
0
 30
0.0
 40
0.283465
 41
0.283465
  0
VERTEX
  8
0
 10
7.241
 20
4.92681
 30
0.0
 40
0.00393701
 41
0.00393701
  0
VERTEX
  8
0
 10
7.1785
 20
4.88683
 30
0.0
 40
0.00393701
 41
0.00393701
  0
SEQEND
 8
0
  0
POLYLINE
  8
0
 62
     0
 66
     1
 10
0
 20
0
 30
0.0
 70
     1
 40
0
 41
0
  0
VERTEX
  8
0
 10
7.1785
 20
4.88683
 30
0.0
 40
0
 41
0
  0
VERTEX
  8
0
 10
7.11507
 20
4.84825
 30
0.0
 40
0
 41
0
  0
SEQEND
 8
0
  0
POLYLINE
  8
0
 62
     0
 66
     1
 10
0
 20
0
 30
0.0
 40
0.283465
 41
0.283465
  0
VERTEX
  8
0
 10
7.1785
 20
4.88683
 30
0.0
 40
0.00393701
 41
0.00393701
  0
VERTEX
  8
0
 10
7.11507
 20
4.84825
 30
0.0
 40
0.00393701
 41
0.00393701
  0
SEQEND
 8
0
  0
POLYLINE
  8
0
 62
     0
 66
     1
 10
0
 20
0
 30
0.0
 70
     1
 40
0
 41
0
  0
VERTEX
  8
0
 10
7.11507
 20
4.84825
 30
0.0
 40
0
 41
0
  0
VERTEX
  8
0
 10
7.05078
 20
4.81125
 30
0.0
 40
0
 41
0
  0
SEQEND
 8
0
  0
POLYLINE
  8
0
 62
     0
 66
     1
 10
0
 20
0
 30
0.0
 40
0.283465
 41
0.283465
  0
VERTEX
  8
0
 10
7.11507
 20
4.84825
 30
0.0
 40
0.00393701
 41
0.00393701
  0
VERTEX
  8
0
 10
7.05078
 20
4.81125
 30
0.0
 40
0.00393701
 41
0.00393701
  0
SEQEND
 8
0
  0
POLYLINE
  8
0
 62
     0
 66
     1
 10
0
 20
0
 30
0.0
 70
     1
 40
0
 41
0
  0
VERTEX
  8
0
 10
7.05078
 20
4.81125
 30
0.0
 40
0
 41
0
  0
VERTEX
  8
0
 10
6.98563
 20
4.77576
 30
0.0
 40
0
 41
0
  0
SEQEND
 8
0
  0
POLYLINE
  8
0
 62
     0
 66
     1
 10
0
 20
0
 30
0.0
 40
0.283465
 41
0.283465
  0
VERTEX
  8
0
 10
7.05078
 20
4.81125
 30
0.0
 40
0.00393701
 41
0.00393701
  0
VERTEX
  8
0
 10
6.98563
 20
4.77576
 30
0.0
 40
0.00393701
 41
0.00393701
  0
SEQEND
 8
0
  0
POLYLINE
  8
0
 62
     0
 66
     1
 10
0
 20
0
 30
0.0
 70
     1
 40
0
 41
0
  0
VERTEX
  8
0
 10
6.98563
 20
4.77576
 30
0.0
 40
0
 41
0
  0
VERTEX
  8
0
 10
6.9196
 20
4.74181
 30
0.0
 40
0
 41
0
  0
SEQEND
 8
0
  0
POLYLINE
  8
0
 62
     0
 66
     1
 10
0
 20
0
 30
0.0
 40
0.283465
 41
0.283465
  0
VERTEX
  8
0
 10
6.98563
 20
4.77576
 30
0.0
 40
0.00393701
 41
0.00393701
  0
VERTEX
  8
0
 10
6.9196
 20
4.74181
 30
0.0
 40
0.00393701
 41
0.00393701
  0
SEQEND
 8
0
  0
POLYLINE
  8
0
 62
     0
 66
     1
 10
0
 20
0
 30
0.0
 70
     1
 40
0
 41
0
  0
VERTEX
  8
0
 10
6.9196
 20
4.74181
 30
0.0
 40
0
 41
0
  0
VERTEX
  8
0
 10
6.85286
 20
4.70942
 30
0.0
 40
0
 41
0
  0
SEQEND
 8
0
  0
POLYLINE
  8
0
 62
     0
 66
     1
 10
0
 20
0
 30
0.0
 40
0.283465
 41
0.283465
  0
VERTEX
  8
0
 10
6.9196
 20
4.74181
 30
0.0
 40
0.00393701
 41
0.00393701
  0
VERTEX
  8
0
 10
6.85286
 20
4.70942
 30
0.0
 40
0.00393701
 41
0.00393701
  0
SEQEND
 8
0
  0
POLYLINE
  8
0
 62
     0
 66
     1
 10
0
 20
0
 30
0.0
 70
     1
 40
0
 41
0
  0
VERTEX
  8
0
 10
6.85286
 20
4.70942
 30
0.0
 40
0
 41
0
  0
VERTEX
  8
0
 10
6.78532
 20
4.6786
 30
0.0
 40
0
 41
0
  0
SEQEND
 8
0
  0
POLYLINE
  8
0
 62
     0
 66
     1
 10
0
 20
0
 30
0.0
 40
0.283465
 41
0.283465
  0
VERTEX
  8
0
 10
6.85286
 20
4.70942
 30
0.0
 40
0.00393701
 41
0.00393701
  0
VERTEX
  8
0
 10
6.78532
 20
4.6786
 30
0.0
 40
0.00393701
 41
0.00393701
  0
SEQEND
 8
0
  0
POLYLINE
  8
0
 62
     0
 66
     1
 10
0
 20
0
 30
0.0
 70
     1
 40
0
 41
0
  0
VERTEX
  8
0
 10
6.78532
 20
4.6786
 30
0.0
 40
0
 41
0
  0
VERTEX
  8
0
 10
6.71712
 20
4.64942
 30
0.0
 40
0
 41
0
  0
SEQEND
 8
0
  0
POLYLINE
  8
0
 62
     0
 66
     1
 10
0
 20
0
 30
0.0
 40
0.283465
 41
0.283465
  0
VERTEX
  8
0
 10
6.78532
 20
4.6786
 30
0.0
 40
0.00393701
 41
0.00393701
  0
VERTEX
  8
0
 10
6.71712
 20
4.64942
 30
0.0
 40
0.00393701
 41
0.00393701
  0
SEQEND
 8
0
  0
POLYLINE
  8
0
 62
     0
 66
     1
 10
0
 20
0
 30
0.0
 70
     1
 40
0
 41
0
  0
VERTEX
  8
0
 10
6.71712
 20
4.64942
 30
0.0
 40
0
 41
0
  0
VERTEX
  8
0
 10
6.64822
 20
4.62185
 30
0.0
 40
0
 41
0
  0
SEQEND
 8
0
  0
POLYLINE
  8
0
 62
     0
 66
     1
 10
0
 20
0
 30
0.0
 40
0.283465
 41
0.283465
  0
VERTEX
  8
0
 10
6.71712
 20
4.64942
 30
0.0
 40
0.00393701
 41
0.00393701
  0
VERTEX
  8
0
 10
6.64822
 20
4.62185
 30
0.0
 40
0.00393701
 41
0.00393701
  0
SEQEND
 8
0
  0
POLYLINE
  8
0
 62
     0
 66
     1
 10
0
 20
0
 30
0.0
 70
     1
 40
0
 41
0
  0
VERTEX
  8
0
 10
6.64822
 20
4.62185
 30
0.0
 40
0
 41
0
  0
VERTEX
  8
0
 10
6.57872
 20
4.59586
 30
0.0
 40
0
 41
0
  0
SEQEND
 8
0
  0
POLYLINE
  8
0
 62
     0
 66
     1
 10
0
 20
0
 30
0.0
 40
0.283465
 41
0.283465
  0
VERTEX
  8
0
 10
6.64822
 20
4.62185
 30
0.0
 40
0.00393701
 41
0.00393701
  0
VERTEX
  8
0
 10
6.57872
 20
4.59586
 30
0.0
 40
0.00393701
 41
0.00393701
  0
SEQEND
 8
0
  0
POLYLINE
  8
0
 62
     0
 66
     1
 10
0
 20
0
 30
0.0
 70
     1
 40
0
 41
0
  0
VERTEX
  8
0
 10
6.57872
 20
4.59586
 30
0.0
 40
0
 41
0
  0
VERTEX
  8
0
 10
6.50857
 20
4.57156
 30
0.0
 40
0
 41
0
  0
SEQEND
 8
0
  0
POLYLINE
  8
0
 62
     0
 66
     1
 10
0
 20
0
 30
0.0
 40
0.283465
 41
0.283465
  0
VERTEX
  8
0
 10
6.57872
 20
4.59586
 30
0.0
 40
0.00393701
 41
0.00393701
  0
VERTEX
  8
0
 10
6.50857
 20
4.57156
 30
0.0
 40
0.00393701
 41
0.00393701
  0
SEQEND
 8
0
  0
POLYLINE
  8
0
 62
     0
 66
     1
 10
0
 20
0
 30
0.0
 70
     1
 40
0
 41
0
  0
VERTEX
  8
0
 10
6.50857
 20
4.57156
 30
0.0
 40
0
 41
0
  0
VERTEX
  8
0
 10
6.43793
 20
4.54889
 30
0.0
 40
0
 41
0
  0
SEQEND
 8
0
  0
POLYLINE
  8
0
 62
     0
 66
     1
 10
0
 20
0
 30
0.0
 40
0.283465
 41
0.283465
  0
VERTEX
  8
0
 10
6.50857
 20
4.57156
 30
0.0
 40
0.00393701
 41
0.00393701
  0
VERTEX
  8
0
 10
6.43793
 20
4.54889
 30
0.0
 40
0.00393701
 41
0.00393701
  0
SEQEND
 8
0
  0
POLYLINE
  8
0
 62
     0
 66
     1
 10
0
 20
0
 30
0.0
 70
     1
 40
0
 41
0
  0
VERTEX
  8
0
 10
6.43793
 20
4.54889
 30
0.0
 40
0
 41
0
  0
VERTEX
  8
0
 10
6.36675
 20
4.52794
 30
0.0
 40
0
 41
0
  0
SEQEND
 8
0
  0
POLYLINE
  8
0
 62
     0
 66
     1
 10
0
 20
0
 30
0.0
 40
0.283465
 41
0.283465
  0
VERTEX
  8
0
 10
6.43793
 20
4.54889
 30
0.0
 40
0.00393701
 41
0.00393701
  0
VERTEX
  8
0
 10
6.36675
 20
4.52794
 30
0.0
 40
0.00393701
 41
0.00393701
  0
SEQEND
 8
0
  0
POLYLINE
  8
0
 62
     0
 66
     1
 10
0
 20
0
 30
0.0
 70
     1
 40
0
 41
0
  0
VERTEX
  8
0
 10
6.36675
 20
4.52794
 30
0.0
 40
0
 41
0
  0
VERTEX
  8
0
 10
6.29508
 20
4.50863
 30
0.0
 40
0
 41
0
  0
SEQEND
 8
0
  0
POLYLINE
  8
0
 62
     0
 66
     1
 10
0
 20
0
 30
0.0
 40
0.283465
 41
0.283465
  0
VERTEX
  8
0
 10
6.36675
 20
4.52794
 30
0.0
 40
0.00393701
 41
0.00393701
  0
VERTEX
  8
0
 10
6.29508
 20
4.50863
 30
0.0
 40
0.00393701
 41
0.00393701
  0
SEQEND
 8
0
  0
POLYLINE
  8
0
 62
     0
 66
     1
 10
0
 20
0
 30
0.0
 70
     1
 40
0
 41
0
  0
VERTEX
  8
0
 10
6.29508
 20
4.50863
 30
0.0
 40
0
 41
0
  0
VERTEX
  8
0
 10
6.22299
 20
4.491
 30
0.0
 40
0
 41
0
  0
SEQEND
 8
0
  0
POLYLINE
  8
0
 62
     0
 66
     1
 10
0
 20
0
 30
0.0
 40
0.283465
 41
0.283465
  0
VERTEX
  8
0
 10
6.29508
 20
4.50863
 30
0.0
 40
0.00393701
 41
0.00393701
  0
VERTEX
  8
0
 10
6.22299
 20
4.491
 30
0.0
 40
0.00393701
 41
0.00393701
  0
SEQEND
 8
0
  0
POLYLINE
  8
0
 62
     0
 66
     1
 10
0
 20
0
 30
0.0
 70
     1
 40
0
 41
0
  0
VERTEX
  8
0
 10
6.22299
 20
4.491
 30
0.0
 40
0
 41
0
  0
VERTEX
  8
0
 10
6.1505
 20
4.4751
 30
0.0
 40
0
 41
0
  0
SEQEND
 8
0
  0
POLYLINE
  8
0
 62
     0
 66
     1
 10
0
 20
0
 30
0.0
 40
0.283465
 41
0.283465
  0
VERTEX
  8
0
 10
6.22299
 20
4.491
 30
0.0
 40
0.00393701
 41
0.00393701
  0
VERTEX
  8
0
 10
6.1505
 20
4.4751
 30
0.0
 40
0.00393701
 41
0.00393701
  0
SEQEND
 8
0
  0
POLYLINE
  8
0
 62
     0
 66
     1
 10
0
 20
0
 30
0.0
 70
     1
 40
0
 41
0
  0
VERTEX
  8
0
 10
6.1505
 20
4.4751
 30
0.0
 40
0
 41
0
  0
VERTEX
  8
0
 10
6.07769
 20
4.46094
 30
0.0
 40
0
 41
0
  0
SEQEND
 8
0
  0
POLYLINE
  8
0
 62
     0
 66
     1
 10
0
 20
0
 30
0.0
 40
0.283465
 41
0.283465
  0
VERTEX
  8
0
 10
6.1505
 20
4.4751
 30
0.0
 40
0.00393701
 41
0.00393701
  0
VERTEX
  8
0
 10
6.07769
 20
4.46094
 30
0.0
 40
0.00393701
 41
0.00393701
  0
SEQEND
 8
0
  0
POLYLINE
  8
0
 62
     0
 66
     1
 10
0
 20
0
 30
0.0
 70
     1
 40
0
 41
0
  0
VERTEX
  8
0
 10
6.07769
 20
4.46094
 30
0.0
 40
0
 41
0
  0
VERTEX
  8
0
 10
6.0045
 20
4.44846
 30
0.0
 40
0
 41
0
  0
SEQEND
 8
0
  0
POLYLINE
  8
0
 62
     0
 66
     1
 10
0
 20
0
 30
0.0
 40
0.283465
 41
0.283465
  0
VERTEX
  8
0
 10
6.07769
 20
4.46094
 30
0.0
 40
0.00393701
 41
0.00393701
  0
VERTEX
  8
0
 10
6.0045
 20
4.44846
 30
0.0
 40
0.00393701
 41
0.00393701
  0
SEQEND
 8
0
  0
POLYLINE
  8
0
 62
     0
 66
     1
 10
0
 20
0
 30
0.0
 70
     1
 40
0
 41
0
  0
VERTEX
  8
0
 10
6.0045
 20
4.44846
 30
0.0
 40
0
 41
0
  0
VERTEX
  8
0
 10
5.9311
 20
4.43772
 30
0.0
 40
0
 41
0
  0
SEQEND
 8
0
  0
POLYLINE
  8
0
 62
     0
 66
     1
 10
0
 20
0
 30
0.0
 40
0.283465
 41
0.283465
  0
VERTEX
  8
0
 10
6.0045
 20
4.44846
 30
0.0
 40
0.00393701
 41
0.00393701
  0
VERTEX
  8
0
 10
5.9311
 20
4.43772
 30
0.0
 40
0.00393701
 41
0.00393701
  0
SEQEND
 8
0
  0
POLYLINE
  8
0
 62
     0
 66
     1
 10
0
 20
0
 30
0.0
 70
     1
 40
0
 41
0
  0
VERTEX
  8
0
 10
5.9311
 20
4.43772
 30
0.0
 40
0
 41
0
  0
VERTEX
  8
0
 10
5.85742
 20
4.42871
 30
0.0
 40
0
 41
0
  0
SEQEND
 8
0
  0
POLYLINE
  8
0
 62
     0
 66
     1
 10
0
 20
0
 30
0.0
 40
0.283465
 41
0.283465
  0
VERTEX
  8
0
 10
5.9311
 20
4.43772
 30
0.0
 40
0.00393701
 41
0.00393701
  0
VERTEX
  8
0
 10
5.85742
 20
4.42871
 30
0.0
 40
0.00393701
 41
0.00393701
  0
SEQEND
 8
0
  0
POLYLINE
  8
0
 62
     0
 66
     1
 10
0
 20
0
 30
0.0
 70
     1
 40
0
 41
0
  0
VERTEX
  8
0
 10
5.85742
 20
4.42871
 30
0.0
 40
0
 41
0
  0
VERTEX
  8
0
 10
5.78358
 20
4.42144
 30
0.0
 40
0
 41
0
  0
SEQEND
 8
0
  0
POLYLINE
  8
0
 62
     0
 66
     1
 10
0
 20
0
 30
0.0
 40
0.283465
 41
0.283465
  0
VERTEX
  8
0
 10
5.85742
 20
4.42871
 30
0.0
 40
0.00393701
 41
0.00393701
  0
VERTEX
  8
0
 10
5.78358
 20
4.42144
 30
0.0
 40
0.00393701
 41
0.00393701
  0
SEQEND
 8
0
  0
POLYLINE
  8
0
 62
     0
 66
     1
 10
0
 20
0
 30
0.0
 70
     1
 40
0
 41
0
  0
VERTEX
  8
0
 10
5.78358
 20
4.42144
 30
0.0
 40
0
 41
0
  0
VERTEX
  8
0
 10
5.70958
 20
4.4159
 30
0.0
 40
0
 41
0
  0
SEQEND
 8
0
  0
POLYLINE
  8
0
 62
     0
 66
     1
 10
0
 20
0
 30
0.0
 40
0.283465
 41
0.283465
  0
VERTEX
  8
0
 10
5.78358
 20
4.42144
 30
0.0
 40
0.00393701
 41
0.00393701
  0
VERTEX
  8
0
 10
5.70958
 20
4.4159
 30
0.0
 40
0.00393701
 41
0.00393701
  0
SEQEND
 8
0
  0
POLYLINE
  8
0
 62
     0
 66
     1
 10
0
 20
0
 30
0.0
 70
     1
 40
0
 41
0
  0
VERTEX
  8
0
 10
5.70958
 20
4.4159
 30
0.0
 40
0
 41
0
  0
VERTEX
  8
0
 10
5.63547
 20
4.41211
 30
0.0
 40
0
 41
0
  0
SEQEND
 8
0
  0
POLYLINE
  8
0
 62
     0
 66
     1
 10
0
 20
0
 30
0.0
 40
0.283465
 41
0.283465
  0
VERTEX
  8
0
 10
5.70958
 20
4.4159
 30
0.0
 40
0.00393701
 41
0.00393701
  0
VERTEX
  8
0
 10
5.63547
 20
4.41211
 30
0.0
 40
0.00393701
 41
0.00393701
  0
SEQEND
 8
0
  0
POLYLINE
  8
0
 62
     0
 66
     1
 10
0
 20
0
 30
0.0
 70
     1
 40
0
 41
0
  0
VERTEX
  8
0
 10
5.63547
 20
4.41211
 30
0.0
 40
0
 41
0
  0
VERTEX
  8
0
 10
5.56131
 20
4.41004
 30
0.0
 40
0
 41
0
  0
SEQEND
 8
0
  0
POLYLINE
  8
0
 62
     0
 66
     1
 10
0
 20
0
 30
0.0
 40
0.283465
 41
0.283465
  0
VERTEX
  8
0
 10
5.63547
 20
4.41211
 30
0.0
 40
0.00393701
 41
0.00393701
  0
VERTEX
  8
0
 10
5.56131
 20
4.41004
 30
0.0
 40
0.00393701
 41
0.00393701
  0
SEQEND
 8
0
  0
POLYLINE
  8
0
 62
     0
 66
     1
 10
0
 20
0
 30
0.0
 70
     1
 40
0
 41
0
  0
VERTEX
  8
0
 10
5.56131
 20
4.41004
 30
0.0
 40
0
 41
0
  0
VERTEX
  8
0
 10
5.48708
 20
4.40978
 30
0.0
 40
0
 41
0
  0
SEQEND
 8
0
  0
POLYLINE
  8
0
 62
     0
 66
     1
 10
0
 20
0
 30
0.0
 40
0.283465
 41
0.283465
  0
VERTEX
  8
0
 10
5.56131
 20
4.41004
 30
0.0
 40
0.00393701
 41
0.00393701
  0
VERTEX
  8
0
 10
5.48708
 20
4.40978
 30
0.0
 40
0.00393701
 41
0.00393701
  0
SEQEND
 8
0
  0
POLYLINE
  8
0
 62
     0
 66
     1
 10
0
 20
0
 30
0.0
 70
     1
 40
0
 41
0
  0
VERTEX
  8
0
 10
5.48708
 20
4.40978
 30
0.0
 40
0
 41
0
  0
VERTEX
  8
0
 10
5.41287
 20
4.41124
 30
0.0
 40
0
 41
0
  0
SEQEND
 8
0
  0
POLYLINE
  8
0
 62
     0
 66
     1
 10
0
 20
0
 30
0.0
 40
0.283465
 41
0.283465
  0
VERTEX
  8
0
 10
5.48708
 20
4.40978
 30
0.0
 40
0.00393701
 41
0.00393701
  0
VERTEX
  8
0
 10
5.41287
 20
4.41124
 30
0.0
 40
0.00393701
 41
0.00393701
  0
SEQEND
 8
0
  0
POLYLINE
  8
0
 62
     0
 66
     1
 10
0
 20
0
 30
0.0
 70
     1
 40
0
 41
0
  0
VERTEX
  8
0
 10
5.41287
 20
4.41124
 30
0.0
 40
0
 41
0
  0
VERTEX
  8
0
 10
5.33876
 20
4.41444
 30
0.0
 40
0
 41
0
  0
SEQEND
 8
0
  0
POLYLINE
  8
0
 62
     0
 66
     1
 10
0
 20
0
 30
0.0
 40
0.283465
 41
0.283465
  0
VERTEX
  8
0
 10
5.41287
 20
4.41124
 30
0.0
 40
0.00393701
 41
0.00393701
  0
VERTEX
  8
0
 10
5.33876
 20
4.41444
 30
0.0
 40
0.00393701
 41
0.00393701
  0
SEQEND
 8
0
  0
POLYLINE
  8
0
 62
     0
 66
     1
 10
0
 20
0
 30
0.0
 70
     1
 40
0
 41
0
  0
VERTEX
  8
0
 10
5.33876
 20
4.41444
 30
0.0
 40
0
 41
0
  0
VERTEX
  8
0
 10
5.26471
 20
4.41938
 30
0.0
 40
0
 41
0
  0
SEQEND
 8
0
  0
POLYLINE
  8
0
 62
     0
 66
     1
 10
0
 20
0
 30
0.0
 40
0.283465
 41
0.283465
  0
VERTEX
  8
0
 10
5.33876
 20
4.41444
 30
0.0
 40
0.00393701
 41
0.00393701
  0
VERTEX
  8
0
 10
5.26471
 20
4.41938
 30
0.0
 40
0.00393701
 41
0.00393701
  0
SEQEND
 8
0
  0
POLYLINE
  8
0
 62
     0
 66
     1
 10
0
 20
0
 30
0.0
 70
     1
 40
0
 41
0
  0
VERTEX
  8
0
 10
5.26471
 20
4.41938
 30
0.0
 40
0
 41
0
  0
VERTEX
  8
0
 10
5.19081
 20
4.42606
 30
0.0
 40
0
 41
0
  0
SEQEND
 8
0
  0
POLYLINE
  8
0
 62
     0
 66
     1
 10
0
 20
0
 30
0.0
 40
0.283465
 41
0.283465
  0
VERTEX
  8
0
 10
5.26471
 20
4.41938
 30
0.0
 40
0.00393701
 41
0.00393701
  0
VERTEX
  8
0
 10
5.19081
 20
4.42606
 30
0.0
 40
0.00393701
 41
0.00393701
  0
SEQEND
 8
0
  0
POLYLINE
  8
0
 62
     0
 66
     1
 10
0
 20
0
 30
0.0
 70
     1
 40
0
 41
0
  0
VERTEX
  8
0
 10
5.19081
 20
4.42606
 30
0.0
 40
0
 41
0
  0
VERTEX
  8
0
 10
5.11708
 20
4.43451
 30
0.0
 40
0
 41
0
  0
SEQEND
 8
0
  0
POLYLINE
  8
0
 62
     0
 66
     1
 10
0
 20
0
 30
0.0
 40
0.283465
 41
0.283465
  0
VERTEX
  8
0
 10
5.19081
 20
4.42606
 30
0.0
 40
0.00393701
 41
0.00393701
  0
VERTEX
  8
0
 10
5.11708
 20
4.43451
 30
0.0
 40
0.00393701
 41
0.00393701
  0
SEQEND
 8
0
  0
POLYLINE
  8
0
 62
     0
 66
     1
 10
0
 20
0
 30
0.0
 70
     1
 40
0
 41
0
  0
VERTEX
  8
0
 10
5.11708
 20
4.43451
 30
0.0
 40
0
 41
0
  0
VERTEX
  8
0
 10
5.04357
 20
4.44467
 30
0.0
 40
0
 41
0
  0
SEQEND
 8
0
  0
POLYLINE
  8
0
 62
     0
 66
     1
 10
0
 20
0
 30
0.0
 40
0.283465
 41
0.283465
  0
VERTEX
  8
0
 10
5.11708
 20
4.43451
 30
0.0
 40
0.00393701
 41
0.00393701
  0
VERTEX
  8
0
 10
5.04357
 20
4.44467
 30
0.0
 40
0.00393701
 41
0.00393701
  0
SEQEND
 8
0
  0
POLYLINE
  8
0
 62
     0
 66
     1
 10
0
 20
0
 30
0.0
 70
     1
 40
0
 41
0
  0
VERTEX
  8
0
 10
5.04357
 20
4.44467
 30
0.0
 40
0
 41
0
  0
VERTEX
  8
0
 10
4.97032
 20
4.45654
 30
0.0
 40
0
 41
0
  0
SEQEND
 8
0
  0
POLYLINE
  8
0
 62
     0
 66
     1
 10
0
 20
0
 30
0.0
 40
0.283465
 41
0.283465
  0
VERTEX
  8
0
 10
5.04357
 20
4.44467
 30
0.0
 40
0.00393701
 41
0.00393701
  0
VERTEX
  8
0
 10
4.97032
 20
4.45654
 30
0.0
 40
0.00393701
 41
0.00393701
  0
SEQEND
 8
0
  0
POLYLINE
  8
0
 62
     0
 66
     1
 10
0
 20
0
 30
0.0
 70
     1
 40
0
 41
0
  0
VERTEX
  8
0
 10
4.97032
 20
4.45654
 30
0.0
 40
0
 41
0
  0
VERTEX
  8
0
 10
4.89735
 20
4.47017
 30
0.0
 40
0
 41
0
  0
SEQEND
 8
0
  0
POLYLINE
  8
0
 62
     0
 66
     1
 10
0
 20
0
 30
0.0
 40
0.283465
 41
0.283465
  0
VERTEX
  8
0
 10
4.97032
 20
4.45654
 30
0.0
 40
0.00393701
 41
0.00393701
  0
VERTEX
  8
0
 10
4.89735
 20
4.47017
 30
0.0
 40
0.00393701
 41
0.00393701
  0
SEQEND
 8
0
  0
POLYLINE
  8
0
 62
     0
 66
     1
 10
0
 20
0
 30
0.0
 70
     1
 40
0
 41
0
  0
VERTEX
  8
0
 10
4.89735
 20
4.47017
 30
0.0
 40
0
 41
0
  0
VERTEX
  8
0
 10
4.82476
 20
4.48551
 30
0.0
 40
0
 41
0
  0
SEQEND
 8
0
  0
POLYLINE
  8
0
 62
     0
 66
     1
 10
0
 20
0
 30
0.0
 40
0.283465
 41
0.283465
  0
VERTEX
  8
0
 10
4.89735
 20
4.47017
 30
0.0
 40
0.00393701
 41
0.00393701
  0
VERTEX
  8
0
 10
4.82476
 20
4.48551
 30
0.0
 40
0.00393701
 41
0.00393701
  0
SEQEND
 8
0
  0
POLYLINE
  8
0
 62
     0
 66
     1
 10
0
 20
0
 30
0.0
 70
     1
 40
0
 41
0
  0
VERTEX
  8
0
 10
4.82476
 20
4.48551
 30
0.0
 40
0
 41
0
  0
VERTEX
  8
0
 10
4.7525
 20
4.50256
 30
0.0
 40
0
 41
0
  0
SEQEND
 8
0
  0
POLYLINE
  8
0
 62
     0
 66
     1
 10
0
 20
0
 30
0.0
 40
0.283465
 41
0.283465
  0
VERTEX
  8
0
 10
4.82476
 20
4.48551
 30
0.0
 40
0.00393701
 41
0.00393701
  0
VERTEX
  8
0
 10
4.7525
 20
4.50256
 30
0.0
 40
0.00393701
 41
0.00393701
  0
SEQEND
 8
0
  0
POLYLINE
  8
0
 62
     0
 66
     1
 10
0
 20
0
 30
0.0
 70
     1
 40
0
 41
0
  0
VERTEX
  8
0
 10
4.7525
 20
4.50256
 30
0.0
 40
0
 41
0
  0
VERTEX
  8
0
 10
4.68072
 20
4.52132
 30
0.0
 40
0
 41
0
  0
SEQEND
 8
0
  0
POLYLINE
  8
0
 62
     0
 66
     1
 10
0
 20
0
 30
0.0
 40
0.283465
 41
0.283465
  0
VERTEX
  8
0
 10
4.7525
 20
4.50256
 30
0.0
 40
0.00393701
 41
0.00393701
  0
VERTEX
  8
0
 10
4.68072
 20
4.52132
 30
0.0
 40
0.00393701
 41
0.00393701
  0
SEQEND
 8
0
  0
POLYLINE
  8
0
 62
     0
 66
     1
 10
0
 20
0
 30
0.0
 70
     1
 40
0
 41
0
  0
VERTEX
  8
0
 10
4.68072
 20
4.52132
 30
0.0
 40
0
 41
0
  0
VERTEX
  8
0
 10
4.60938
 20
4.54172
 30
0.0
 40
0
 41
0
  0
SEQEND
 8
0
  0
POLYLINE
  8
0
 62
     0
 66
     1
 10
0
 20
0
 30
0.0
 40
0.283465
 41
0.283465
  0
VERTEX
  8
0
 10
4.68072
 20
4.52132
 30
0.0
 40
0.00393701
 41
0.00393701
  0
VERTEX
  8
0
 10
4.60938
 20
4.54172
 30
0.0
 40
0.00393701
 41
0.00393701
  0
SEQEND
 8
0
  0
POLYLINE
  8
0
 62
     0
 66
     1
 10
0
 20
0
 30
0.0
 70
     1
 40
0
 41
0
  0
VERTEX
  8
0
 10
4.60938
 20
4.54172
 30
0.0
 40
0
 41
0
  0
VERTEX
  8
0
 10
4.53851
 20
4.56381
 30
0.0
 40
0
 41
0
  0
SEQEND
 8
0
  0
POLYLINE
  8
0
 62
     0
 66
     1
 10
0
 20
0
 30
0.0
 40
0.283465
 41
0.283465
  0
VERTEX
  8
0
 10
4.60938
 20
4.54172
 30
0.0
 40
0.00393701
 41
0.00393701
  0
VERTEX
  8
0
 10
4.53851
 20
4.56381
 30
0.0
 40
0.00393701
 41
0.00393701
  0
SEQEND
 8
0
  0
POLYLINE
  8
0
 62
     0
 66
     1
 10
0
 20
0
 30
0.0
 70
     1
 40
0
 41
0
  0
VERTEX
  8
0
 10
4.53851
 20
4.56381
 30
0.0
 40
0
 41
0
  0
VERTEX
  8
0
 10
4.46821
 20
4.58757
 30
0.0
 40
0
 41
0
  0
SEQEND
 8
0
  0
POLYLINE
  8
0
 62
     0
 66
     1
 10
0
 20
0
 30
0.0
 40
0.283465
 41
0.283465
  0
VERTEX
  8
0
 10
4.53851
 20
4.56381
 30
0.0
 40
0.00393701
 41
0.00393701
  0
VERTEX
  8
0
 10
4.46821
 20
4.58757
 30
0.0
 40
0.00393701
 41
0.00393701
  0
SEQEND
 8
0
  0
POLYLINE
  8
0
 62
     0
 66
     1
 10
0
 20
0
 30
0.0
 70
     1
 40
0
 41
0
  0
VERTEX
  8
0
 10
4.46821
 20
4.58757
 30
0.0
 40
0
 41
0
  0
VERTEX
  8
0
 10
4.39849
 20
4.61301
 30
0.0
 40
0
 41
0
  0
SEQEND
 8
0
  0
POLYLINE
  8
0
 62
     0
 66
     1
 10
0
 20
0
 30
0.0
 40
0.283465
 41
0.283465
  0
VERTEX
  8
0
 10
4.46821
 20
4.58757
 30
0.0
 40
0.00393701
 41
0.00393701
  0
VERTEX
  8
0
 10
4.39849
 20
4.61301
 30
0.0
 40
0.00393701
 41
0.00393701
  0
SEQEND
 8
0
  0
POLYLINE
  8
0
 62
     0
 66
     1
 10
0
 20
0
 30
0.0
 70
     1
 40
0
 41
0
  0
VERTEX
  8
0
 10
4.39849
 20
4.61301
 30
0.0
 40
0
 41
0
  0
VERTEX
  8
0
 10
4.32937
 20
4.64003
 30
0.0
 40
0
 41
0
  0
SEQEND
 8
0
  0
POLYLINE
  8
0
 62
     0
 66
     1
 10
0
 20
0
 30
0.0
 40
0.283465
 41
0.283465
  0
VERTEX
  8
0
 10
4.39849
 20
4.61301
 30
0.0
 40
0.00393701
 41
0.00393701
  0
VERTEX
  8
0
 10
4.32937
 20
4.64003
 30
0.0
 40
0.00393701
 41
0.00393701
  0
SEQEND
 8
0
  0
POLYLINE
  8
0
 62
     0
 66
     1
 10
0
 20
0
 30
0.0
 70
     1
 40
0
 41
0
  0
VERTEX
  8
0
 10
4.32937
 20
4.64003
 30
0.0
 40
0
 41
0
  0
VERTEX
  8
0
 10
4.26096
 20
4.66872
 30
0.0
 40
0
 41
0
  0
SEQEND
 8
0
  0
POLYLINE
  8
0
 62
     0
 66
     1
 10
0
 20
0
 30
0.0
 40
0.283465
 41
0.283465
  0
VERTEX
  8
0
 10
4.32937
 20
4.64003
 30
0.0
 40
0.00393701
 41
0.00393701
  0
VERTEX
  8
0
 10
4.26096
 20
4.66872
 30
0.0
 40
0.00393701
 41
0.00393701
  0
SEQEND
 8
0
  0
POLYLINE
  8
0
 62
     0
 66
     1
 10
0
 20
0
 30
0.0
 70
     1
 40
0
 41
0
  0
VERTEX
  8
0
 10
4.26096
 20
4.66872
 30
0.0
 40
0
 41
0
  0
VERTEX
  8
0
 10
4.19319
 20
4.699
 30
0.0
 40
0
 41
0
  0
SEQEND
 8
0
  0
POLYLINE
  8
0
 62
     0
 66
     1
 10
0
 20
0
 30
0.0
 40
0.283465
 41
0.283465
  0
VERTEX
  8
0
 10
4.26096
 20
4.66872
 30
0.0
 40
0.00393701
 41
0.00393701
  0
VERTEX
  8
0
 10
4.19319
 20
4.699
 30
0.0
 40
0.00393701
 41
0.00393701
  0
SEQEND
 8
0
  0
POLYLINE
  8
0
 62
     0
 66
     1
 10
0
 20
0
 30
0.0
 70
     1
 40
0
 41
0
  0
VERTEX
  8
0
 10
4.19319
 20
4.699
 30
0.0
 40
0
 41
0
  0
VERTEX
  8
0
 10
4.12619
 20
4.73085
 30
0.0
 40
0
 41
0
  0
SEQEND
 8
0
  0
POLYLINE
  8
0
 62
     0
 66
     1
 10
0
 20
0
 30
0.0
 40
0.283465
 41
0.283465
  0
VERTEX
  8
0
 10
4.19319
 20
4.699
 30
0.0
 40
0.00393701
 41
0.00393701
  0
VERTEX
  8
0
 10
4.12619
 20
4.73085
 30
0.0
 40
0.00393701
 41
0.00393701
  0
SEQEND
 8
0
  0
POLYLINE
  8
0
 62
     0
 66
     1
 10
0
 20
0
 30
0.0
 70
     1
 40
0
 41
0
  0
VERTEX
  8
0
 10
4.12619
 20
4.73085
 30
0.0
 40
0
 41
0
  0
VERTEX
  8
0
 10
4.05994
 20
4.76426
 30
0.0
 40
0
 41
0
  0
SEQEND
 8
0
  0
POLYLINE
  8
0
 62
     0
 66
     1
 10
0
 20
0
 30
0.0
 40
0.283465
 41
0.283465
  0
VERTEX
  8
0
 10
4.12619
 20
4.73085
 30
0.0
 40
0.00393701
 41
0.00393701
  0
VERTEX
  8
0
 10
4.05994
 20
4.76426
 30
0.0
 40
0.00393701
 41
0.00393701
  0
SEQEND
 8
0
  0
POLYLINE
  8
0
 62
     0
 66
     1
 10
0
 20
0
 30
0.0
 70
     1
 40
0
 41
0
  0
VERTEX
  8
0
 10
4.05994
 20
4.76426
 30
0.0
 40
0
 41
0
  0
VERTEX
  8
0
 10
3.99447
 20
4.79926
 30
0.0
 40
0
 41
0
  0
SEQEND
 8
0
  0
POLYLINE
  8
0
 62
     0
 66
     1
 10
0
 20
0
 30
0.0
 40
0.283465
 41
0.283465
  0
VERTEX
  8
0
 10
4.05994
 20
4.76426
 30
0.0
 40
0.00393701
 41
0.00393701
  0
VERTEX
  8
0
 10
3.99447
 20
4.79926
 30
0.0
 40
0.00393701
 41
0.00393701
  0
SEQEND
 8
0
  0
POLYLINE
  8
0
 62
     0
 66
     1
 10
0
 20
0
 30
0.0
 70
     1
 40
0
 41
0
  0
VERTEX
  8
0
 10
3.99447
 20
4.79926
 30
0.0
 40
0
 41
0
  0
VERTEX
  8
0
 10
3.92985
 20
4.83578
 30
0.0
 40
0
 41
0
  0
SEQEND
 8
0
  0
POLYLINE
  8
0
 62
     0
 66
     1
 10
0
 20
0
 30
0.0
 40
0.283465
 41
0.283465
  0
VERTEX
  8
0
 10
3.99447
 20
4.79926
 30
0.0
 40
0.00393701
 41
0.00393701
  0
VERTEX
  8
0
 10
3.92985
 20
4.83578
 30
0.0
 40
0.00393701
 41
0.00393701
  0
SEQEND
 8
0
  0
POLYLINE
  8
0
 62
     0
 66
     1
 10
0
 20
0
 30
0.0
 70
     1
 40
0
 41
0
  0
VERTEX
  8
0
 10
3.92985
 20
4.83578
 30
0.0
 40
0
 41
0
  0
VERTEX
  8
0
 10
3.86615
 20
4.87381
 30
0.0
 40
0
 41
0
  0
SEQEND
 8
0
  0
POLYLINE
  8
0
 62
     0
 66
     1
 10
0
 20
0
 30
0.0
 40
0.283465
 41
0.283465
  0
VERTEX
  8
0
 10
3.92985
 20
4.83578
 30
0.0
 40
0.00393701
 41
0.00393701
  0
VERTEX
  8
0
 10
3.86615
 20
4.87381
 30
0.0
 40
0.00393701
 41
0.00393701
  0
SEQEND
 8
0
  0
POLYLINE
  8
0
 62
     0
 66
     1
 10
0
 20
0
 30
0.0
 70
     1
 40
0
 41
0
  0
VERTEX
  8
0
 10
3.86615
 20
4.87381
 30
0.0
 40
0
 41
0
  0
VERTEX
  8
0
 10
3.80333
 20
4.91331
 30
0.0
 40
0
 41
0
  0
SEQEND
 8
0
  0
POLYLINE
  8
0
 62
     0
 66
     1
 10
0
 20
0
 30
0.0
 40
0.283465
 41
0.283465
  0
VERTEX
  8
0
 10
3.86615
 20
4.87381
 30
0.0
 40
0.00393701
 41
0.00393701
  0
VERTEX
  8
0
 10
3.80333
 20
4.91331
 30
0.0
 40
0.00393701
 41
0.00393701
  0
SEQEND
 8
0
  0
POLYLINE
  8
0
 62
     0
 66
     1
 10
0
 20
0
 30
0.0
 70
     1
 40
0
 41
0
  0
VERTEX
  8
0
 10
3.80333
 20
4.91331
 30
0.0
 40
0
 41
0
  0
VERTEX
  8
0
 10
3.74149
 20
4.95432
 30
0.0
 40
0
 41
0
  0
SEQEND
 8
0
  0
POLYLINE
  8
0
 62
     0
 66
     1
 10
0
 20
0
 30
0.0
 40
0.283465
 41
0.283465
  0
VERTEX
  8
0
 10
3.80333
 20
4.91331
 30
0.0
 40
0.00393701
 41
0.00393701
  0
VERTEX
  8
0
 10
3.74149
 20
4.95432
 30
0.0
 40
0.00393701
 41
0.00393701
  0
SEQEND
 8
0
  0
POLYLINE
  8
0
 62
     0
 66
     1
 10
0
 20
0
 30
0.0
 70
     1
 40
0
 41
0
  0
VERTEX
  8
0
 10
3.74149
 20
4.95432
 30
0.0
 40
0
 41
0
  0
VERTEX
  8
0
 10
3.68061
 20
4.99675
 30
0.0
 40
0
 41
0
  0
SEQEND
 8
0
  0
POLYLINE
  8
0
 62
     0
 66
     1
 10
0
 20
0
 30
0.0
 40
0.283465
 41
0.283465
  0
VERTEX
  8
0
 10
3.74149
 20
4.95432
 30
0.0
 40
0.00393701
 41
0.00393701
  0
VERTEX
  8
0
 10
3.68061
 20
4.99675
 30
0.0
 40
0.00393701
 41
0.00393701
  0
SEQEND
 8
0
  0
POLYLINE
  8
0
 62
     0
 66
     1
 10
0
 20
0
 30
0.0
 70
     1
 40
0
 41
0
  0
VERTEX
  8
0
 10
3.68061
 20
4.99675
 30
0.0
 40
0
 41
0
  0
VERTEX
  8
0
 10
3.62071
 20
5.04058
 30
0.0
 40
0
 41
0
  0
SEQEND
 8
0
  0
POLYLINE
  8
0
 62
     0
 66
     1
 10
0
 20
0
 30
0.0
 40
0.283465
 41
0.283465
  0
VERTEX
  8
0
 10
3.68061
 20
4.99675
 30
0.0
 40
0.00393701
 41
0.00393701
  0
VERTEX
  8
0
 10
3.62071
 20
5.04058
 30
0.0
 40
0.00393701
 41
0.00393701
  0
SEQEND
 8
0
  0
POLYLINE
  8
0
 62
     0
 66
     1
 10
0
 20
0
 30
0.0
 70
     1
 40
0
 41
0
  0
VERTEX
  8
0
 10
3.62071
 20
5.04058
 30
0.0
 40
0
 41
0
  0
VERTEX
  8
0
 10
3.5619
 20
5.08583
 30
0.0
 40
0
 41
0
  0
SEQEND
 8
0
  0
POLYLINE
  8
0
 62
     0
 66
     1
 10
0
 20
0
 30
0.0
 40
0.283465
 41
0.283465
  0
VERTEX
  8
0
 10
3.62071
 20
5.04058
 30
0.0
 40
0.00393701
 41
0.00393701
  0
VERTEX
  8
0
 10
3.5619
 20
5.08583
 30
0.0
 40
0.00393701
 41
0.00393701
  0
SEQEND
 8
0
  0
POLYLINE
  8
0
 62
     0
 66
     1
 10
0
 20
0
 30
0.0
 70
     1
 40
0
 41
0
  0
VERTEX
  8
0
 10
3.5619
 20
5.08583
 30
0.0
 40
0
 41
0
  0
VERTEX
  8
0
 10
3.50418
 20
5.13249
 30
0.0
 40
0
 41
0
  0
SEQEND
 8
0
  0
POLYLINE
  8
0
 62
     0
 66
     1
 10
0
 20
0
 30
0.0
 40
0.283465
 41
0.283465
  0
VERTEX
  8
0
 10
3.5619
 20
5.08583
 30
0.0
 40
0.00393701
 41
0.00393701
  0
VERTEX
  8
0
 10
3.50418
 20
5.13249
 30
0.0
 40
0.00393701
 41
0.00393701
  0
SEQEND
 8
0
  0
POLYLINE
  8
0
 62
     0
 66
     1
 10
0
 20
0
 30
0.0
 70
     1
 40
0
 41
0
  0
VERTEX
  8
0
 10
3.50418
 20
5.13249
 30
0.0
 40
0
 41
0
  0
VERTEX
  8
0
 10
3.44754
 20
5.18044
 30
0.0
 40
0
 41
0
  0
SEQEND
 8
0
  0
POLYLINE
  8
0
 62
     0
 66
     1
 10
0
 20
0
 30
0.0
 40
0.283465
 41
0.283465
  0
VERTEX
  8
0
 10
3.50418
 20
5.13249
 30
0.0
 40
0.00393701
 41
0.00393701
  0
VERTEX
  8
0
 10
3.44754
 20
5.18044
 30
0.0
 40
0.00393701
 41
0.00393701
  0
SEQEND
 8
0
  0
POLYLINE
  8
0
 62
     0
 66
     1
 10
0
 20
0
 30
0.0
 70
     1
 40
0
 41
0
  0
VERTEX
  8
0
 10
3.44754
 20
5.18044
 30
0.0
 40
0
 41
0
  0
VERTEX
  8
0
 10
3.39208
 20
5.22971
 30
0.0
 40
0
 41
0
  0
SEQEND
 8
0
  0
POLYLINE
  8
0
 62
     0
 66
     1
 10
0
 20
0
 30
0.0
 40
0.283465
 41
0.283465
  0
VERTEX
  8
0
 10
3.44754
 20
5.18044
 30
0.0
 40
0.00393701
 41
0.00393701
  0
VERTEX
  8
0
 10
3.39208
 20
5.22971
 30
0.0
 40
0.00393701
 41
0.00393701
  0
SEQEND
 8
0
  0
POLYLINE
  8
0
 62
     0
 66
     1
 10
0
 20
0
 30
0.0
 70
     1
 40
0
 41
0
  0
VERTEX
  8
0
 10
3.39208
 20
5.22971
 30
0.0
 40
0
 41
0
  0
VERTEX
  8
0
 10
3.33778
 20
5.28033
 30
0.0
 40
0
 41
0
  0
SEQEND
 8
0
  0
POLYLINE
  8
0
 62
     0
 66
     1
 10
0
 20
0
 30
0.0
 40
0.283465
 41
0.283465
  0
VERTEX
  8
0
 10
3.39208
 20
5.22971
 30
0.0
 40
0.00393701
 41
0.00393701
  0
VERTEX
  8
0
 10
3.33778
 20
5.28033
 30
0.0
 40
0.00393701
 41
0.00393701
  0
SEQEND
 8
0
  0
POLYLINE
  8
0
 62
     0
 66
     1
 10
0
 20
0
 30
0.0
 70
     1
 40
0
 41
0
  0
VERTEX
  8
0
 10
3.33778
 20
5.28033
 30
0.0
 40
0
 41
0
  0
VERTEX
  8
0
 10
3.28472
 20
5.33214
 30
0.0
 40
0
 41
0
  0
SEQEND
 8
0
  0
POLYLINE
  8
0
 62
     0
 66
     1
 10
0
 20
0
 30
0.0
 40
0.283465
 41
0.283465
  0
VERTEX
  8
0
 10
3.33778
 20
5.28033
 30
0.0
 40
0.00393701
 41
0.00393701
  0
VERTEX
  8
0
 10
3.28472
 20
5.33214
 30
0.0
 40
0.00393701
 41
0.00393701
  0
SEQEND
 8
0
  0
POLYLINE
  8
0
 62
     0
 66
     1
 10
0
 20
0
 30
0.0
 70
     1
 40
0
 41
0
  0
VERTEX
  8
0
 10
8.6614
 20
7.55931
 30
0.0
 40
0
 41
0
  0
VERTEX
  8
0
 10
8.66868
 20
7.65164
 30
0.0
 40
0
 41
0
  0
SEQEND
 8
0
  0
POLYLINE
  8
0
 62
     0
 66
     1
 10
0
 20
0
 30
0.0
 40
0.283465
 41
0.283465
  0
VERTEX
  8
0
 10
8.6614
 20
7.55931
 30
0.0
 40
0.00393701
 41
0.00393701
  0
VERTEX
  8
0
 10
8.66868
 20
7.65164
 30
0.0
 40
0.00393701
 41
0.00393701
  0
SEQEND
 8
0
  0
POLYLINE
  8
0
 62
     0
 66
     1
 10
0
 20
0
 30
0.0
 70
     1
 40
0
 41
0
  0
VERTEX
  8
0
 10
8.66868
 20
7.65164
 30
0.0
 40
0
 41
0
  0
VERTEX
  8
0
 10
8.69032
 20
7.74175
 30
0.0
 40
0
 41
0
  0
SEQEND
 8
0
  0
POLYLINE
  8
0
 62
     0
 66
     1
 10
0
 20
0
 30
0.0
 40
0.283465
 41
0.283465
  0
VERTEX
  8
0
 10
8.66868
 20
7.65164
 30
0.0
 40
0.00393701
 41
0.00393701
  0
VERTEX
  8
0
 10
8.69032
 20
7.74175
 30
0.0
 40
0.00393701
 41
0.00393701
  0
SEQEND
 8
0
  0
POLYLINE
  8
0
 62
     0
 66
     1
 10
0
 20
0
 30
0.0
 70
     1
 40
0
 41
0
  0
VERTEX
  8
0
 10
8.69032
 20
7.74175
 30
0.0
 40
0
 41
0
  0
VERTEX
  8
0
 10
8.72581
 20
7.82736
 30
0.0
 40
0
 41
0
  0
SEQEND
 8
0
  0
POLYLINE
  8
0
 62
     0
 66
     1
 10
0
 20
0
 30
0.0
 40
0.283465
 41
0.283465
  0
VERTEX
  8
0
 10
8.69032
 20
7.74175
 30
0.0
 40
0.00393701
 41
0.00393701
  0
VERTEX
  8
0
 10
8.72581
 20
7.82736
 30
0.0
 40
0.00393701
 41
0.00393701
  0
SEQEND
 8
0
  0
POLYLINE
  8
0
 62
     0
 66
     1
 10
0
 20
0
 30
0.0
 70
     1
 40
0
 41
0
  0
VERTEX
  8
0
 10
8.72581
 20
7.82736
 30
0.0
 40
0
 41
0
  0
VERTEX
  8
0
 10
8.77419
 20
7.90642
 30
0.0
 40
0
 41
0
  0
SEQEND
 8
0
  0
POLYLINE
  8
0
 62
     0
 66
     1
 10
0
 20
0
 30
0.0
 40
0.283465
 41
0.283465
  0
VERTEX
  8
0
 10
8.72581
 20
7.82736
 30
0.0
 40
0.00393701
 41
0.00393701
  0
VERTEX
  8
0
 10
8.77419
 20
7.90642
 30
0.0
 40
0.00393701
 41
0.00393701
  0
SEQEND
 8
0
  0
POLYLINE
  8
0
 62
     0
 66
     1
 10
0
 20
0
 30
0.0
 70
     1
 40
0
 41
0
  0
VERTEX
  8
0
 10
8.77419
 20
7.90642
 30
0.0
 40
0
 41
0
  0
VERTEX
  8
0
 10
8.83436
 20
7.97683
 30
0.0
 40
0
 41
0
  0
SEQEND
 8
0
  0
POLYLINE
  8
0
 62
     0
 66
     1
 10
0
 20
0
 30
0.0
 40
0.283465
 41
0.283465
  0
VERTEX
  8
0
 10
8.77419
 20
7.90642
 30
0.0
 40
0.00393701
 41
0.00393701
  0
VERTEX
  8
0
 10
8.83436
 20
7.97683
 30
0.0
 40
0.00393701
 41
0.00393701
  0
SEQEND
 8
0
  0
POLYLINE
  8
0
 62
     0
 66
     1
 10
0
 20
0
 30
0.0
 70
     1
 40
0
 41
0
  0
VERTEX
  8
0
 10
8.83436
 20
7.97683
 30
0.0
 40
0
 41
0
  0
VERTEX
  8
0
 10
8.90483
 20
8.03706
 30
0.0
 40
0
 41
0
  0
SEQEND
 8
0
  0
POLYLINE
  8
0
 62
     0
 66
     1
 10
0
 20
0
 30
0.0
 40
0.283465
 41
0.283465
  0
VERTEX
  8
0
 10
8.83436
 20
7.97683
 30
0.0
 40
0.00393701
 41
0.00393701
  0
VERTEX
  8
0
 10
8.90483
 20
8.03706
 30
0.0
 40
0.00393701
 41
0.00393701
  0
SEQEND
 8
0
  0
POLYLINE
  8
0
 62
     0
 66
     1
 10
0
 20
0
 30
0.0
 70
     1
 40
0
 41
0
  0
VERTEX
  8
0
 10
8.90483
 20
8.03706
 30
0.0
 40
0
 41
0
  0
VERTEX
  8
0
 10
8.98389
 20
8.08544
 30
0.0
 40
0
 41
0
  0
SEQEND
 8
0
  0
POLYLINE
  8
0
 62
     0
 66
     1
 10
0
 20
0
 30
0.0
 40
0.283465
 41
0.283465
  0
VERTEX
  8
0
 10
8.90483
 20
8.03706
 30
0.0
 40
0.00393701
 41
0.00393701
  0
VERTEX
  8
0
 10
8.98389
 20
8.08544
 30
0.0
 40
0.00393701
 41
0.00393701
  0
SEQEND
 8
0
  0
POLYLINE
  8
0
 62
     0
 66
     1
 10
0
 20
0
 30
0.0
 70
     1
 40
0
 41
0
  0
VERTEX
  8
0
 10
8.98389
 20
8.08544
 30
0.0
 40
0
 41
0
  0
VERTEX
  8
0
 10
9.0695
 20
8.12093
 30
0.0
 40
0
 41
0
  0
SEQEND
 8
0
  0
POLYLINE
  8
0
 62
     0
 66
     1
 10
0
 20
0
 30
0.0
 40
0.283465
 41
0.283465
  0
VERTEX
  8
0
 10
8.98389
 20
8.08544
 30
0.0
 40
0.00393701
 41
0.00393701
  0
VERTEX
  8
0
 10
9.0695
 20
8.12093
 30
0.0
 40
0.00393701
 41
0.00393701
  0
SEQEND
 8
0
  0
POLYLINE
  8
0
 62
     0
 66
     1
 10
0
 20
0
 30
0.0
 70
     1
 40
0
 41
0
  0
VERTEX
  8
0
 10
9.0695
 20
8.12093
 30
0.0
 40
0
 41
0
  0
VERTEX
  8
0
 10
9.15956
 20
8.14258
 30
0.0
 40
0
 41
0
  0
SEQEND
 8
0
  0
POLYLINE
  8
0
 62
     0
 66
     1
 10
0
 20
0
 30
0.0
 40
0.283465
 41
0.283465
  0
VERTEX
  8
0
 10
9.0695
 20
8.12093
 30
0.0
 40
0.00393701
 41
0.00393701
  0
VERTEX
  8
0
 10
9.15956
 20
8.14258
 30
0.0
 40
0.00393701
 41
0.00393701
  0
SEQEND
 8
0
  0
POLYLINE
  8
0
 62
     0
 66
     1
 10
0
 20
0
 30
0.0
 70
     1
 40
0
 41
0
  0
VERTEX
  8
0
 10
9.15956
 20
8.14258
 30
0.0
 40
0
 41
0
  0
VERTEX
  8
0
 10
9.25196
 20
8.14985
 30
0.0
 40
0
 41
0
  0
SEQEND
 8
0
  0
POLYLINE
  8
0
 62
     0
 66
     1
 10
0
 20
0
 30
0.0
 40
0.283465
 41
0.283465
  0
VERTEX
  8
0
 10
9.15956
 20
8.14258
 30
0.0
 40
0.00393701
 41
0.00393701
  0
VERTEX
  8
0
 10
9.25196
 20
8.14985
 30
0.0
 40
0.00393701
 41
0.00393701
  0
SEQEND
 8
0
  0
POLYLINE
  8
0
 62
     0
 66
     1
 10
0
 20
0
 30
0.0
 70
     1
 40
0
 41
0
  0
VERTEX
  8
0
 10
9.25196
 20
8.14985
 30
0.0
 40
0
 41
0
  0
VERTEX
  8
0
 10
9.34435
 20
8.14258
 30
0.0
 40
0
 41
0
  0
SEQEND
 8
0
  0
POLYLINE
  8
0
 62
     0
 66
     1
 10
0
 20
0
 30
0.0
 40
0.283465
 41
0.283465
  0
VERTEX
  8
0
 10
9.25196
 20
8.14985
 30
0.0
 40
0.00393701
 41
0.00393701
  0
VERTEX
  8
0
 10
9.34435
 20
8.14258
 30
0.0
 40
0.00393701
 41
0.00393701
  0
SEQEND
 8
0
  0
POLYLINE
  8
0
 62
     0
 66
     1
 10
0
 20
0
 30
0.0
 70
     1
 40
0
 41
0
  0
VERTEX
  8
0
 10
9.34435
 20
8.14258
 30
0.0
 40
0
 41
0
  0
VERTEX
  8
0
 10
9.43446
 20
8.12093
 30
0.0
 40
0
 41
0
  0
SEQEND
 8
0
  0
POLYLINE
  8
0
 62
     0
 66
     1
 10
0
 20
0
 30
0.0
 40
0.283465
 41
0.283465
  0
VERTEX
  8
0
 10
9.34435
 20
8.14258
 30
0.0
 40
0.00393701
 41
0.00393701
  0
VERTEX
  8
0
 10
9.43446
 20
8.12093
 30
0.0
 40
0.00393701
 41
0.00393701
  0
SEQEND
 8
0
  0
POLYLINE
  8
0
 62
     0
 66
     1
 10
0
 20
0
 30
0.0
 70
     1
 40
0
 41
0
  0
VERTEX
  8
0
 10
9.43446
 20
8.12093
 30
0.0
 40
0
 41
0
  0
VERTEX
  8
0
 10
9.52007
 20
8.08544
 30
0.0
 40
0
 41
0
  0
SEQEND
 8
0
  0
POLYLINE
  8
0
 62
     0
 66
     1
 10
0
 20
0
 30
0.0
 40
0.283465
 41
0.283465
  0
VERTEX
  8
0
 10
9.43446
 20
8.12093
 30
0.0
 40
0.00393701
 41
0.00393701
  0
VERTEX
  8
0
 10
9.52007
 20
8.08544
 30
0.0
 40
0.00393701
 41
0.00393701
  0
SEQEND
 8
0
  0
POLYLINE
  8
0
 62
     0
 66
     1
 10
0
 20
0
 30
0.0
 70
     1
 40
0
 41
0
  0
VERTEX
  8
0
 10
9.52007
 20
8.08544
 30
0.0
 40
0
 41
0
  0
VERTEX
  8
0
 10
9.59907
 20
8.03706
 30
0.0
 40
0
 41
0
  0
SEQEND
 8
0
  0
POLYLINE
  8
0
 62
     0
 66
     1
 10
0
 20
0
 30
0.0
 40
0.283465
 41
0.283465
  0
VERTEX
  8
0
 10
9.52007
 20
8.08544
 30
0.0
 40
0.00393701
 41
0.00393701
  0
VERTEX
  8
0
 10
9.59907
 20
8.03706
 30
0.0
 40
0.00393701
 41
0.00393701
  0
SEQEND
 8
0
  0
POLYLINE
  8
0
 62
     0
 66
     1
 10
0
 20
0
 30
0.0
 70
     1
 40
0
 41
0
  0
VERTEX
  8
0
 10
9.59907
 20
8.03706
 30
0.0
 40
0
 41
0
  0
VERTEX
  8
0
 10
9.66954
 20
7.97683
 30
0.0
 40
0
 41
0
  0
SEQEND
 8
0
  0
POLYLINE
  8
0
 62
     0
 66
     1
 10
0
 20
0
 30
0.0
 40
0.283465
 41
0.283465
  0
VERTEX
  8
0
 10
9.59907
 20
8.03706
 30
0.0
 40
0.00393701
 41
0.00393701
  0
VERTEX
  8
0
 10
9.66954
 20
7.97683
 30
0.0
 40
0.00393701
 41
0.00393701
  0
SEQEND
 8
0
  0
POLYLINE
  8
0
 62
     0
 66
     1
 10
0
 20
0
 30
0.0
 70
     1
 40
0
 41
0
  0
VERTEX
  8
0
 10
9.66954
 20
7.97683
 30
0.0
 40
0
 41
0
  0
VERTEX
  8
0
 10
9.72971
 20
7.90642
 30
0.0
 40
0
 41
0
  0
SEQEND
 8
0
  0
POLYLINE
  8
0
 62
     0
 66
     1
 10
0
 20
0
 30
0.0
 40
0.283465
 41
0.283465
  0
VERTEX
  8
0
 10
9.66954
 20
7.97683
 30
0.0
 40
0.00393701
 41
0.00393701
  0
VERTEX
  8
0
 10
9.72971
 20
7.90642
 30
0.0
 40
0.00393701
 41
0.00393701
  0
SEQEND
 8
0
  0
POLYLINE
  8
0
 62
     0
 66
     1
 10
0
 20
0
 30
0.0
 70
     1
 40
0
 41
0
  0
VERTEX
  8
0
 10
9.72971
 20
7.90642
 30
0.0
 40
0
 41
0
  0
VERTEX
  8
0
 10
9.77815
 20
7.82736
 30
0.0
 40
0
 41
0
  0
SEQEND
 8
0
  0
POLYLINE
  8
0
 62
     0
 66
     1
 10
0
 20
0
 30
0.0
 40
0.283465
 41
0.283465
  0
VERTEX
  8
0
 10
9.72971
 20
7.90642
 30
0.0
 40
0.00393701
 41
0.00393701
  0
VERTEX
  8
0
 10
9.77815
 20
7.82736
 30
0.0
 40
0.00393701
 41
0.00393701
  0
SEQEND
 8
0
  0
POLYLINE
  8
0
 62
     0
 66
     1
 10
0
 20
0
 30
0.0
 70
     1
 40
0
 41
0
  0
VERTEX
  8
0
 10
9.77815
 20
7.82736
 30
0.0
 40
0
 41
0
  0
VERTEX
  8
0
 10
9.81364
 20
7.74175
 30
0.0
 40
0
 41
0
  0
SEQEND
 8
0
  0
POLYLINE
  8
0
 62
     0
 66
     1
 10
0
 20
0
 30
0.0
 40
0.283465
 41
0.283465
  0
VERTEX
  8
0
 10
9.77815
 20
7.82736
 30
0.0
 40
0.00393701
 41
0.00393701
  0
VERTEX
  8
0
 10
9.81364
 20
7.74175
 30
0.0
 40
0.00393701
 41
0.00393701
  0
SEQEND
 8
0
  0
POLYLINE
  8
0
 62
     0
 66
     1
 10
0
 20
0
 30
0.0
 70
     1
 40
0
 41
0
  0
VERTEX
  8
0
 10
9.81364
 20
7.74175
 30
0.0
 40
0
 41
0
  0
VERTEX
  8
0
 10
9.83524
 20
7.65164
 30
0.0
 40
0
 41
0
  0
SEQEND
 8
0
  0
POLYLINE
  8
0
 62
     0
 66
     1
 10
0
 20
0
 30
0.0
 40
0.283465
 41
0.283465
  0
VERTEX
  8
0
 10
9.81364
 20
7.74175
 30
0.0
 40
0.00393701
 41
0.00393701
  0
VERTEX
  8
0
 10
9.83524
 20
7.65164
 30
0.0
 40
0.00393701
 41
0.00393701
  0
SEQEND
 8
0
  0
POLYLINE
  8
0
 62
     0
 66
     1
 10
0
 20
0
 30
0.0
 70
     1
 40
0
 41
0
  0
VERTEX
  8
0
 10
9.83524
 20
7.65164
 30
0.0
 40
0
 41
0
  0
VERTEX
  8
0
 10
9.8425
 20
7.55931
 30
0.0
 40
0
 41
0
  0
SEQEND
 8
0
  0
POLYLINE
  8
0
 62
     0
 66
     1
 10
0
 20
0
 30
0.0
 40
0.283465
 41
0.283465
  0
VERTEX
  8
0
 10
9.83524
 20
7.65164
 30
0.0
 40
0.00393701
 41
0.00393701
  0
VERTEX
  8
0
 10
9.8425
 20
7.55931
 30
0.0
 40
0.00393701
 41
0.00393701
  0
SEQEND
 8
0
  0
POLYLINE
  8
0
 62
     0
 66
     1
 10
0
 20
0
 30
0.0
 70
     1
 40
0
 41
0
  0
VERTEX
  8
0
 10
2.44954
 20
4.49701
 30
0.0
 40
0
 41
0
  0
VERTEX
  8
0
 10
2.38938
 20
4.56749
 30
0.0
 40
0
 41
0
  0
SEQEND
 8
0
  0
POLYLINE
  8
0
 62
     0
 66
     1
 10
0
 20
0
 30
0.0
 40
0.283465
 41
0.283465
  0
VERTEX
  8
0
 10
2.44954
 20
4.49701
 30
0.0
 40
0.00393701
 41
0.00393701
  0
VERTEX
  8
0
 10
2.38938
 20
4.56749
 30
0.0
 40
0.00393701
 41
0.00393701
  0
SEQEND
 8
0
  0
POLYLINE
  8
0
 62
     0
 66
     1
 10
0
 20
0
 30
0.0
 70
     1
 40
0
 41
0
  0
VERTEX
  8
0
 10
2.38938
 20
4.56749
 30
0.0
 40
0
 41
0
  0
VERTEX
  8
0
 10
2.34093
 20
4.64649
 30
0.0
 40
0
 41
0
  0
SEQEND
 8
0
  0
POLYLINE
  8
0
 62
     0
 66
     1
 10
0
 20
0
 30
0.0
 40
0.283465
 41
0.283465
  0
VERTEX
  8
0
 10
2.38938
 20
4.56749
 30
0.0
 40
0.00393701
 41
0.00393701
  0
VERTEX
  8
0
 10
2.34093
 20
4.64649
 30
0.0
 40
0.00393701
 41
0.00393701
  0
SEQEND
 8
0
  0
POLYLINE
  8
0
 62
     0
 66
     1
 10
0
 20
0
 30
0.0
 70
     1
 40
0
 41
0
  0
VERTEX
  8
0
 10
2.34093
 20
4.64649
 30
0.0
 40
0
 41
0
  0
VERTEX
  8
0
 10
2.30544
 20
4.7321
 30
0.0
 40
0
 41
0
  0
SEQEND
 8
0
  0
POLYLINE
  8
0
 62
     0
 66
     1
 10
0
 20
0
 30
0.0
 40
0.283465
 41
0.283465
  0
VERTEX
  8
0
 10
2.34093
 20
4.64649
 30
0.0
 40
0.00393701
 41
0.00393701
  0
VERTEX
  8
0
 10
2.30544
 20
4.7321
 30
0.0
 40
0.00393701
 41
0.00393701
  0
SEQEND
 8
0
  0
POLYLINE
  8
0
 62
     0
 66
     1
 10
0
 20
0
 30
0.0
 70
     1
 40
0
 41
0
  0
VERTEX
  8
0
 10
2.30544
 20
4.7321
 30
0.0
 40
0
 41
0
  0
VERTEX
  8
0
 10
2.28386
 20
4.82221
 30
0.0
 40
0
 41
0
  0
SEQEND
 8
0
  0
POLYLINE
  8
0
 62
     0
 66
     1
 10
0
 20
0
 30
0.0
 40
0.283465
 41
0.283465
  0
VERTEX
  8
0
 10
2.30544
 20
4.7321
 30
0.0
 40
0.00393701
 41
0.00393701
  0
VERTEX
  8
0
 10
2.28386
 20
4.82221
 30
0.0
 40
0.00393701
 41
0.00393701
  0
SEQEND
 8
0
  0
POLYLINE
  8
0
 62
     0
 66
     1
 10
0
 20
0
 30
0.0
 70
     1
 40
0
 41
0
  0
VERTEX
  8
0
 10
2.28386
 20
4.82221
 30
0.0
 40
0
 41
0
  0
VERTEX
  8
0
 10
2.27658
 20
4.91461
 30
0.0
 40
0
 41
0
  0
SEQEND
 8
0
  0
POLYLINE
  8
0
 62
     0
 66
     1
 10
0
 20
0
 30
0.0
 40
0.283465
 41
0.283465
  0
VERTEX
  8
0
 10
2.28386
 20
4.82221
 30
0.0
 40
0.00393701
 41
0.00393701
  0
VERTEX
  8
0
 10
2.27658
 20
4.91461
 30
0.0
 40
0.00393701
 41
0.00393701
  0
SEQEND
 8
0
  0
POLYLINE
  8
0
 62
     0
 66
     1
 10
0
 20
0
 30
0.0
 70
     1
 40
0
 41
0
  0
VERTEX
  8
0
 10
2.27658
 20
4.91461
 30
0.0
 40
0
 41
0
  0
VERTEX
  8
0
 10
2.28386
 20
5.00694
 30
0.0
 40
0
 41
0
  0
SEQEND
 8
0
  0
POLYLINE
  8
0
 62
     0
 66
     1
 10
0
 20
0
 30
0.0
 40
0.283465
 41
0.283465
  0
VERTEX
  8
0
 10
2.27658
 20
4.91461
 30
0.0
 40
0.00393701
 41
0.00393701
  0
VERTEX
  8
0
 10
2.28386
 20
5.00694
 30
0.0
 40
0.00393701
 41
0.00393701
  0
SEQEND
 8
0
  0
POLYLINE
  8
0
 62
     0
 66
     1
 10
0
 20
0
 30
0.0
 70
     1
 40
0
 41
0
  0
VERTEX
  8
0
 10
2.28386
 20
5.00694
 30
0.0
 40
0
 41
0
  0
VERTEX
  8
0
 10
2.30544
 20
5.09706
 30
0.0
 40
0
 41
0
  0
SEQEND
 8
0
  0
POLYLINE
  8
0
 62
     0
 66
     1
 10
0
 20
0
 30
0.0
 40
0.283465
 41
0.283465
  0
VERTEX
  8
0
 10
2.28386
 20
5.00694
 30
0.0
 40
0.00393701
 41
0.00393701
  0
VERTEX
  8
0
 10
2.30544
 20
5.09706
 30
0.0
 40
0.00393701
 41
0.00393701
  0
SEQEND
 8
0
  0
POLYLINE
  8
0
 62
     0
 66
     1
 10
0
 20
0
 30
0.0
 70
     1
 40
0
 41
0
  0
VERTEX
  8
0
 10
2.30544
 20
5.09706
 30
0.0
 40
0
 41
0
  0
VERTEX
  8
0
 10
2.34093
 20
5.18267
 30
0.0
 40
0
 41
0
  0
SEQEND
 8
0
  0
POLYLINE
  8
0
 62
     0
 66
     1
 10
0
 20
0
 30
0.0
 40
0.283465
 41
0.283465
  0
VERTEX
  8
0
 10
2.30544
 20
5.09706
 30
0.0
 40
0.00393701
 41
0.00393701
  0
VERTEX
  8
0
 10
2.34093
 20
5.18267
 30
0.0
 40
0.00393701
 41
0.00393701
  0
SEQEND
 8
0
  0
POLYLINE
  8
0
 62
     0
 66
     1
 10
0
 20
0
 30
0.0
 70
     1
 40
0
 41
0
  0
VERTEX
  8
0
 10
2.34093
 20
5.18267
 30
0.0
 40
0
 41
0
  0
VERTEX
  8
0
 10
2.38938
 20
5.26172
 30
0.0
 40
0
 41
0
  0
SEQEND
 8
0
  0
POLYLINE
  8
0
 62
     0
 66
     1
 10
0
 20
0
 30
0.0
 40
0.283465
 41
0.283465
  0
VERTEX
  8
0
 10
2.34093
 20
5.18267
 30
0.0
 40
0.00393701
 41
0.00393701
  0
VERTEX
  8
0
 10
2.38938
 20
5.26172
 30
0.0
 40
0.00393701
 41
0.00393701
  0
SEQEND
 8
0
  0
POLYLINE
  8
0
 62
     0
 66
     1
 10
0
 20
0
 30
0.0
 70
     1
 40
0
 41
0
  0
VERTEX
  8
0
 10
2.38938
 20
5.26172
 30
0.0
 40
0
 41
0
  0
VERTEX
  8
0
 10
2.44954
 20
5.33214
 30
0.0
 40
0
 41
0
  0
SEQEND
 8
0
  0
POLYLINE
  8
0
 62
     0
 66
     1
 10
0
 20
0
 30
0.0
 40
0.283465
 41
0.283465
  0
VERTEX
  8
0
 10
2.38938
 20
5.26172
 30
0.0
 40
0.00393701
 41
0.00393701
  0
VERTEX
  8
0
 10
2.44954
 20
5.33214
 30
0.0
 40
0.00393701
 41
0.00393701
  0
SEQEND
 8
0
  0
POLYLINE
  8
0
 62
     0
 66
     1
 10
0
 20
0
 30
0.0
 70
     1
 40
0
 41
0
  0
VERTEX
  8
0
 10
2.44954
 20
5.33214
 30
0.0
 40
0
 41
0
  0
VERTEX
  8
0
 10
2.52001
 20
5.39236
 30
0.0
 40
0
 41
0
  0
SEQEND
 8
0
  0
POLYLINE
  8
0
 62
     0
 66
     1
 10
0
 20
0
 30
0.0
 40
0.283465
 41
0.283465
  0
VERTEX
  8
0
 10
2.44954
 20
5.33214
 30
0.0
 40
0.00393701
 41
0.00393701
  0
VERTEX
  8
0
 10
2.52001
 20
5.39236
 30
0.0
 40
0.00393701
 41
0.00393701
  0
SEQEND
 8
0
  0
POLYLINE
  8
0
 62
     0
 66
     1
 10
0
 20
0
 30
0.0
 70
     1
 40
0
 41
0
  0
VERTEX
  8
0
 10
2.52001
 20
5.39236
 30
0.0
 40
0
 41
0
  0
VERTEX
  8
0
 10
2.59901
 20
5.44075
 30
0.0
 40
0
 41
0
  0
SEQEND
 8
0
  0
POLYLINE
  8
0
 62
     0
 66
     1
 10
0
 20
0
 30
0.0
 40
0.283465
 41
0.283465
  0
VERTEX
  8
0
 10
2.52001
 20
5.39236
 30
0.0
 40
0.00393701
 41
0.00393701
  0
VERTEX
  8
0
 10
2.59901
 20
5.44075
 30
0.0
 40
0.00393701
 41
0.00393701
  0
SEQEND
 8
0
  0
POLYLINE
  8
0
 62
     0
 66
     1
 10
0
 20
0
 30
0.0
 70
     1
 40
0
 41
0
  0
VERTEX
  8
0
 10
2.59901
 20
5.44075
 30
0.0
 40
0
 41
0
  0
VERTEX
  8
0
 10
2.68463
 20
5.47624
 30
0.0
 40
0
 41
0
  0
SEQEND
 8
0
  0
POLYLINE
  8
0
 62
     0
 66
     1
 10
0
 20
0
 30
0.0
 40
0.283465
 41
0.283465
  0
VERTEX
  8
0
 10
2.59901
 20
5.44075
 30
0.0
 40
0.00393701
 41
0.00393701
  0
VERTEX
  8
0
 10
2.68463
 20
5.47624
 30
0.0
 40
0.00393701
 41
0.00393701
  0
SEQEND
 8
0
  0
POLYLINE
  8
0
 62
     0
 66
     1
 10
0
 20
0
 30
0.0
 70
     1
 40
0
 41
0
  0
VERTEX
  8
0
 10
2.68463
 20
5.47624
 30
0.0
 40
0
 41
0
  0
VERTEX
  8
0
 10
2.77474
 20
5.49789
 30
0.0
 40
0
 41
0
  0
SEQEND
 8
0
  0
POLYLINE
  8
0
 62
     0
 66
     1
 10
0
 20
0
 30
0.0
 40
0.283465
 41
0.283465
  0
VERTEX
  8
0
 10
2.68463
 20
5.47624
 30
0.0
 40
0.00393701
 41
0.00393701
  0
VERTEX
  8
0
 10
2.77474
 20
5.49789
 30
0.0
 40
0.00393701
 41
0.00393701
  0
SEQEND
 8
0
  0
POLYLINE
  8
0
 62
     0
 66
     1
 10
0
 20
0
 30
0.0
 70
     1
 40
0
 41
0
  0
VERTEX
  8
0
 10
2.77474
 20
5.49789
 30
0.0
 40
0
 41
0
  0
VERTEX
  8
0
 10
2.86714
 20
5.50515
 30
0.0
 40
0
 41
0
  0
SEQEND
 8
0
  0
POLYLINE
  8
0
 62
     0
 66
     1
 10
0
 20
0
 30
0.0
 40
0.283465
 41
0.283465
  0
VERTEX
  8
0
 10
2.77474
 20
5.49789
 30
0.0
 40
0.00393701
 41
0.00393701
  0
VERTEX
  8
0
 10
2.86714
 20
5.50515
 30
0.0
 40
0.00393701
 41
0.00393701
  0
SEQEND
 8
0
  0
POLYLINE
  8
0
 62
     0
 66
     1
 10
0
 20
0
 30
0.0
 70
     1
 40
0
 41
0
  0
VERTEX
  8
0
 10
2.86714
 20
5.50515
 30
0.0
 40
0
 41
0
  0
VERTEX
  8
0
 10
2.95953
 20
5.49789
 30
0.0
 40
0
 41
0
  0
SEQEND
 8
0
  0
POLYLINE
  8
0
 62
     0
 66
     1
 10
0
 20
0
 30
0.0
 40
0.283465
 41
0.283465
  0
VERTEX
  8
0
 10
2.86714
 20
5.50515
 30
0.0
 40
0.00393701
 41
0.00393701
  0
VERTEX
  8
0
 10
2.95953
 20
5.49789
 30
0.0
 40
0.00393701
 41
0.00393701
  0
SEQEND
 8
0
  0
POLYLINE
  8
0
 62
     0
 66
     1
 10
0
 20
0
 30
0.0
 70
     1
 40
0
 41
0
  0
VERTEX
  8
0
 10
2.95953
 20
5.49789
 30
0.0
 40
0
 41
0
  0
VERTEX
  8
0
 10
3.04958
 20
5.47624
 30
0.0
 40
0
 41
0
  0
SEQEND
 8
0
  0
POLYLINE
  8
0
 62
     0
 66
     1
 10
0
 20
0
 30
0.0
 40
0.283465
 41
0.283465
  0
VERTEX
  8
0
 10
2.95953
 20
5.49789
 30
0.0
 40
0.00393701
 41
0.00393701
  0
VERTEX
  8
0
 10
3.04958
 20
5.47624
 30
0.0
 40
0.00393701
 41
0.00393701
  0
SEQEND
 8
0
  0
POLYLINE
  8
0
 62
     0
 66
     1
 10
0
 20
0
 30
0.0
 70
     1
 40
0
 41
0
  0
VERTEX
  8
0
 10
3.04958
 20
5.47624
 30
0.0
 40
0
 41
0
  0
VERTEX
  8
0
 10
3.13519
 20
5.44075
 30
0.0
 40
0
 41
0
  0
SEQEND
 8
0
  0
POLYLINE
  8
0
 62
     0
 66
     1
 10
0
 20
0
 30
0.0
 40
0.283465
 41
0.283465
  0
VERTEX
  8
0
 10
3.04958
 20
5.47624
 30
0.0
 40
0.00393701
 41
0.00393701
  0
VERTEX
  8
0
 10
3.13519
 20
5.44075
 30
0.0
 40
0.00393701
 41
0.00393701
  0
SEQEND
 8
0
  0
POLYLINE
  8
0
 62
     0
 66
     1
 10
0
 20
0
 30
0.0
 70
     1
 40
0
 41
0
  0
VERTEX
  8
0
 10
3.13519
 20
5.44075
 30
0.0
 40
0
 41
0
  0
VERTEX
  8
0
 10
3.21425
 20
5.39236
 30
0.0
 40
0
 41
0
  0
SEQEND
 8
0
  0
POLYLINE
  8
0
 62
     0
 66
     1
 10
0
 20
0
 30
0.0
 40
0.283465
 41
0.283465
  0
VERTEX
  8
0
 10
3.13519
 20
5.44075
 30
0.0
 40
0.00393701
 41
0.00393701
  0
VERTEX
  8
0
 10
3.21425
 20
5.39236
 30
0.0
 40
0.00393701
 41
0.00393701
  0
SEQEND
 8
0
  0
POLYLINE
  8
0
 62
     0
 66
     1
 10
0
 20
0
 30
0.0
 70
     1
 40
0
 41
0
  0
VERTEX
  8
0
 10
3.21425
 20
5.39236
 30
0.0
 40
0
 41
0
  0
VERTEX
  8
0
 10
3.28472
 20
5.33214
 30
0.0
 40
0
 41
0
  0
SEQEND
 8
0
  0
POLYLINE
  8
0
 62
     0
 66
     1
 10
0
 20
0
 30
0.0
 40
0.283465
 41
0.283465
  0
VERTEX
  8
0
 10
3.21425
 20
5.39236
 30
0.0
 40
0.00393701
 41
0.00393701
  0
VERTEX
  8
0
 10
3.28472
 20
5.33214
 30
0.0
 40
0.00393701
 41
0.00393701
  0
SEQEND
 8
0
  0
POLYLINE
  8
0
 62
     0
 66
     1
 10
0
 20
0
 30
0.0
 70
     1
 40
0
 41
0
  0
VERTEX
  8
0
 10
9.11615
 20
7.55931
 30
0.0
 40
0
 41
0
  0
VERTEX
  8
0
 10
9.11317
 20
7.54042
 30
0.0
 40
0
 41
0
  0
SEQEND
 8
0
  0
POLYLINE
  8
0
 62
     0
 66
     1
 10
0
 20
0
 30
0.0
 40
0.283465
 41
0.283465
  0
VERTEX
  8
0
 10
9.11615
 20
7.55931
 30
0.0
 40
0.00393701
 41
0.00393701
  0
VERTEX
  8
0
 10
9.11317
 20
7.54042
 30
0.0
 40
0.00393701
 41
0.00393701
  0
SEQEND
 8
0
  0
POLYLINE
  8
0
 62
     0
 66
     1
 10
0
 20
0
 30
0.0
 70
     1
 40
0
 41
0
  0
VERTEX
  8
0
 10
9.11317
 20
7.54042
 30
0.0
 40
0
 41
0
  0
VERTEX
  8
0
 10
9.10449
 20
7.52339
 30
0.0
 40
0
 41
0
  0
SEQEND
 8
0
  0
POLYLINE
  8
0
 62
     0
 66
     1
 10
0
 20
0
 30
0.0
 40
0.283465
 41
0.283465
  0
VERTEX
  8
0
 10
9.11317
 20
7.54042
 30
0.0
 40
0.00393701
 41
0.00393701
  0
VERTEX
  8
0
 10
9.10449
 20
7.52339
 30
0.0
 40
0.00393701
 41
0.00393701
  0
SEQEND
 8
0
  0
POLYLINE
  8
0
 62
     0
 66
     1
 10
0
 20
0
 30
0.0
 70
     1
 40
0
 41
0
  0
VERTEX
  8
0
 10
9.10449
 20
7.52339
 30
0.0
 40
0
 41
0
  0
VERTEX
  8
0
 10
9.09099
 20
7.50993
 30
0.0
 40
0
 41
0
  0
SEQEND
 8
0
  0
POLYLINE
  8
0
 62
     0
 66
     1
 10
0
 20
0
 30
0.0
 40
0.283465
 41
0.283465
  0
VERTEX
  8
0
 10
9.10449
 20
7.52339
 30
0.0
 40
0.00393701
 41
0.00393701
  0
VERTEX
  8
0
 10
9.09099
 20
7.50993
 30
0.0
 40
0.00393701
 41
0.00393701
  0
SEQEND
 8
0
  0
POLYLINE
  8
0
 62
     0
 66
     1
 10
0
 20
0
 30
0.0
 70
     1
 40
0
 41
0
  0
VERTEX
  8
0
 10
9.09099
 20
7.50993
 30
0.0
 40
0
 41
0
  0
VERTEX
  8
0
 10
9.074
 20
7.50125
 30
0.0
 40
0
 41
0
  0
SEQEND
 8
0
  0
POLYLINE
  8
0
 62
     0
 66
     1
 10
0
 20
0
 30
0.0
 40
0.283465
 41
0.283465
  0
VERTEX
  8
0
 10
9.09099
 20
7.50993
 30
0.0
 40
0.00393701
 41
0.00393701
  0
VERTEX
  8
0
 10
9.074
 20
7.50125
 30
0.0
 40
0.00393701
 41
0.00393701
  0
SEQEND
 8
0
  0
POLYLINE
  8
0
 62
     0
 66
     1
 10
0
 20
0
 30
0.0
 70
     1
 40
0
 41
0
  0
VERTEX
  8
0
 10
9.074
 20
7.50125
 30
0.0
 40
0
 41
0
  0
VERTEX
  8
0
 10
9.05512
 20
7.49826
 30
0.0
 40
0
 41
0
  0
SEQEND
 8
0
  0
POLYLINE
  8
0
 62
     0
 66
     1
 10
0
 20
0
 30
0.0
 40
0.283465
 41
0.283465
  0
VERTEX
  8
0
 10
9.074
 20
7.50125
 30
0.0
 40
0.00393701
 41
0.00393701
  0
VERTEX
  8
0
 10
9.05512
 20
7.49826
 30
0.0
 40
0.00393701
 41
0.00393701
  0
SEQEND
 8
0
  0
POLYLINE
  8
0
 62
     0
 66
     1
 10
0
 20
0
 30
0.0
 70
     1
 40
0
 41
0
  0
VERTEX
  8
0
 10
9.05512
 20
7.49826
 30
0.0
 40
0
 41
0
  0
VERTEX
  8
0
 10
9.03624
 20
7.50125
 30
0.0
 40
0
 41
0
  0
SEQEND
 8
0
  0
POLYLINE
  8
0
 62
     0
 66
     1
 10
0
 20
0
 30
0.0
 40
0.283465
 41
0.283465
  0
VERTEX
  8
0
 10
9.05512
 20
7.49826
 30
0.0
 40
0.00393701
 41
0.00393701
  0
VERTEX
  8
0
 10
9.03624
 20
7.50125
 30
0.0
 40
0.00393701
 41
0.00393701
  0
SEQEND
 8
0
  0
POLYLINE
  8
0
 62
     0
 66
     1
 10
0
 20
0
 30
0.0
 70
     1
 40
0
 41
0
  0
VERTEX
  8
0
 10
9.03624
 20
7.50125
 30
0.0
 40
0
 41
0
  0
VERTEX
  8
0
 10
9.01926
 20
7.50993
 30
0.0
 40
0
 41
0
  0
SEQEND
 8
0
  0
POLYLINE
  8
0
 62
     0
 66
     1
 10
0
 20
0
 30
0.0
 40
0.283465
 41
0.283465
  0
VERTEX
  8
0
 10
9.03624
 20
7.50125
 30
0.0
 40
0.00393701
 41
0.00393701
  0
VERTEX
  8
0
 10
9.01926
 20
7.50993
 30
0.0
 40
0.00393701
 41
0.00393701
  0
SEQEND
 8
0
  0
POLYLINE
  8
0
 62
     0
 66
     1
 10
0
 20
0
 30
0.0
 70
     1
 40
0
 41
0
  0
VERTEX
  8
0
 10
9.01926
 20
7.50993
 30
0.0
 40
0
 41
0
  0
VERTEX
  8
0
 10
9.00575
 20
7.52339
 30
0.0
 40
0
 41
0
  0
SEQEND
 8
0
  0
POLYLINE
  8
0
 62
     0
 66
     1
 10
0
 20
0
 30
0.0
 40
0.283465
 41
0.283465
  0
VERTEX
  8
0
 10
9.01926
 20
7.50993
 30
0.0
 40
0.00393701
 41
0.00393701
  0
VERTEX
  8
0
 10
9.00575
 20
7.52339
 30
0.0
 40
0.00393701
 41
0.00393701
  0
SEQEND
 8
0
  0
POLYLINE
  8
0
 62
     0
 66
     1
 10
0
 20
0
 30
0.0
 70
     1
 40
0
 41
0
  0
VERTEX
  8
0
 10
9.00575
 20
7.52339
 30
0.0
 40
0
 41
0
  0
VERTEX
  8
0
 10
8.99707
 20
7.54042
 30
0.0
 40
0
 41
0
  0
SEQEND
 8
0
  0
POLYLINE
  8
0
 62
     0
 66
     1
 10
0
 20
0
 30
0.0
 40
0.283465
 41
0.283465
  0
VERTEX
  8
0
 10
9.00575
 20
7.52339
 30
0.0
 40
0.00393701
 41
0.00393701
  0
VERTEX
  8
0
 10
8.99707
 20
7.54042
 30
0.0
 40
0.00393701
 41
0.00393701
  0
SEQEND
 8
0
  0
POLYLINE
  8
0
 62
     0
 66
     1
 10
0
 20
0
 30
0.0
 70
     1
 40
0
 41
0
  0
VERTEX
  8
0
 10
8.99707
 20
7.54042
 30
0.0
 40
0
 41
0
  0
VERTEX
  8
0
 10
8.99408
 20
7.55931
 30
0.0
 40
0
 41
0
  0
SEQEND
 8
0
  0
POLYLINE
  8
0
 62
     0
 66
     1
 10
0
 20
0
 30
0.0
 40
0.283465
 41
0.283465
  0
VERTEX
  8
0
 10
8.99707
 20
7.54042
 30
0.0
 40
0.00393701
 41
0.00393701
  0
VERTEX
  8
0
 10
8.99408
 20
7.55931
 30
0.0
 40
0.00393701
 41
0.00393701
  0
SEQEND
 8
0
  0
POLYLINE
  8
0
 62
     0
 66
     1
 10
0
 20
0
 30
0.0
 70
     1
 40
0
 41
0
  0
VERTEX
  8
0
 10
8.99408
 20
7.55931
 30
0.0
 40
0
 41
0
  0
VERTEX
  8
0
 10
8.99707
 20
7.57813
 30
0.0
 40
0
 41
0
  0
SEQEND
 8
0
  0
POLYLINE
  8
0
 62
     0
 66
     1
 10
0
 20
0
 30
0.0
 40
0.283465
 41
0.283465
  0
VERTEX
  8
0
 10
8.99408
 20
7.55931
 30
0.0
 40
0.00393701
 41
0.00393701
  0
VERTEX
  8
0
 10
8.99707
 20
7.57813
 30
0.0
 40
0.00393701
 41
0.00393701
  0
SEQEND
 8
0
  0
POLYLINE
  8
0
 62
     0
 66
     1
 10
0
 20
0
 30
0.0
 70
     1
 40
0
 41
0
  0
VERTEX
  8
0
 10
8.99707
 20
7.57813
 30
0.0
 40
0
 41
0
  0
VERTEX
  8
0
 10
9.00575
 20
7.59517
 30
0.0
 40
0
 41
0
  0
SEQEND
 8
0
  0
POLYLINE
  8
0
 62
     0
 66
     1
 10
0
 20
0
 30
0.0
 40
0.283465
 41
0.283465
  0
VERTEX
  8
0
 10
8.99707
 20
7.57813
 30
0.0
 40
0.00393701
 41
0.00393701
  0
VERTEX
  8
0
 10
9.00575
 20
7.59517
 30
0.0
 40
0.00393701
 41
0.00393701
  0
SEQEND
 8
0
  0
POLYLINE
  8
0
 62
     0
 66
     1
 10
0
 20
0
 30
0.0
 70
     1
 40
0
 41
0
  0
VERTEX
  8
0
 10
9.00575
 20
7.59517
 30
0.0
 40
0
 41
0
  0
VERTEX
  8
0
 10
9.01926
 20
7.60867
 30
0.0
 40
0
 41
0
  0
SEQEND
 8
0
  0
POLYLINE
  8
0
 62
     0
 66
     1
 10
0
 20
0
 30
0.0
 40
0.283465
 41
0.283465
  0
VERTEX
  8
0
 10
9.00575
 20
7.59517
 30
0.0
 40
0.00393701
 41
0.00393701
  0
VERTEX
  8
0
 10
9.01926
 20
7.60867
 30
0.0
 40
0.00393701
 41
0.00393701
  0
SEQEND
 8
0
  0
POLYLINE
  8
0
 62
     0
 66
     1
 10
0
 20
0
 30
0.0
 70
     1
 40
0
 41
0
  0
VERTEX
  8
0
 10
9.01926
 20
7.60867
 30
0.0
 40
0
 41
0
  0
VERTEX
  8
0
 10
9.03624
 20
7.61729
 30
0.0
 40
0
 41
0
  0
SEQEND
 8
0
  0
POLYLINE
  8
0
 62
     0
 66
     1
 10
0
 20
0
 30
0.0
 40
0.283465
 41
0.283465
  0
VERTEX
  8
0
 10
9.01926
 20
7.60867
 30
0.0
 40
0.00393701
 41
0.00393701
  0
VERTEX
  8
0
 10
9.03624
 20
7.61729
 30
0.0
 40
0.00393701
 41
0.00393701
  0
SEQEND
 8
0
  0
POLYLINE
  8
0
 62
     0
 66
     1
 10
0
 20
0
 30
0.0
 70
     1
 40
0
 41
0
  0
VERTEX
  8
0
 10
9.03624
 20
7.61729
 30
0.0
 40
0
 41
0
  0
VERTEX
  8
0
 10
9.05512
 20
7.62028
 30
0.0
 40
0
 41
0
  0
SEQEND
 8
0
  0
POLYLINE
  8
0
 62
     0
 66
     1
 10
0
 20
0
 30
0.0
 40
0.283465
 41
0.283465
  0
VERTEX
  8
0
 10
9.03624
 20
7.61729
 30
0.0
 40
0.00393701
 41
0.00393701
  0
VERTEX
  8
0
 10
9.05512
 20
7.62028
 30
0.0
 40
0.00393701
 41
0.00393701
  0
SEQEND
 8
0
  0
POLYLINE
  8
0
 62
     0
 66
     1
 10
0
 20
0
 30
0.0
 70
     1
 40
0
 41
0
  0
VERTEX
  8
0
 10
9.05512
 20
7.62028
 30
0.0
 40
0
 41
0
  0
VERTEX
  8
0
 10
9.074
 20
7.61729
 30
0.0
 40
0
 41
0
  0
SEQEND
 8
0
  0
POLYLINE
  8
0
 62
     0
 66
     1
 10
0
 20
0
 30
0.0
 40
0.283465
 41
0.283465
  0
VERTEX
  8
0
 10
9.05512
 20
7.62028
 30
0.0
 40
0.00393701
 41
0.00393701
  0
VERTEX
  8
0
 10
9.074
 20
7.61729
 30
0.0
 40
0.00393701
 41
0.00393701
  0
SEQEND
 8
0
  0
POLYLINE
  8
0
 62
     0
 66
     1
 10
0
 20
0
 30
0.0
 70
     1
 40
0
 41
0
  0
VERTEX
  8
0
 10
9.074
 20
7.61729
 30
0.0
 40
0
 41
0
  0
VERTEX
  8
0
 10
9.09099
 20
7.60867
 30
0.0
 40
0
 41
0
  0
SEQEND
 8
0
  0
POLYLINE
  8
0
 62
     0
 66
     1
 10
0
 20
0
 30
0.0
 40
0.283465
 41
0.283465
  0
VERTEX
  8
0
 10
9.074
 20
7.61729
 30
0.0
 40
0.00393701
 41
0.00393701
  0
VERTEX
  8
0
 10
9.09099
 20
7.60867
 30
0.0
 40
0.00393701
 41
0.00393701
  0
SEQEND
 8
0
  0
POLYLINE
  8
0
 62
     0
 66
     1
 10
0
 20
0
 30
0.0
 70
     1
 40
0
 41
0
  0
VERTEX
  8
0
 10
9.09099
 20
7.60867
 30
0.0
 40
0
 41
0
  0
VERTEX
  8
0
 10
9.10449
 20
7.59517
 30
0.0
 40
0
 41
0
  0
SEQEND
 8
0
  0
POLYLINE
  8
0
 62
     0
 66
     1
 10
0
 20
0
 30
0.0
 40
0.283465
 41
0.283465
  0
VERTEX
  8
0
 10
9.09099
 20
7.60867
 30
0.0
 40
0.00393701
 41
0.00393701
  0
VERTEX
  8
0
 10
9.10449
 20
7.59517
 30
0.0
 40
0.00393701
 41
0.00393701
  0
SEQEND
 8
0
  0
POLYLINE
  8
0
 62
     0
 66
     1
 10
0
 20
0
 30
0.0
 70
     1
 40
0
 41
0
  0
VERTEX
  8
0
 10
9.10449
 20
7.59517
 30
0.0
 40
0
 41
0
  0
VERTEX
  8
0
 10
9.11317
 20
7.57813
 30
0.0
 40
0
 41
0
  0
SEQEND
 8
0
  0
POLYLINE
  8
0
 62
     0
 66
     1
 10
0
 20
0
 30
0.0
 40
0.283465
 41
0.283465
  0
VERTEX
  8
0
 10
9.10449
 20
7.59517
 30
0.0
 40
0.00393701
 41
0.00393701
  0
VERTEX
  8
0
 10
9.11317
 20
7.57813
 30
0.0
 40
0.00393701
 41
0.00393701
  0
SEQEND
 8
0
  0
POLYLINE
  8
0
 62
     0
 66
     1
 10
0
 20
0
 30
0.0
 70
     1
 40
0
 41
0
  0
VERTEX
  8
0
 10
9.11317
 20
7.57813
 30
0.0
 40
0
 41
0
  0
VERTEX
  8
0
 10
9.11615
 20
7.55931
 30
0.0
 40
0
 41
0
  0
SEQEND
 8
0
  0
POLYLINE
  8
0
 62
     0
 66
     1
 10
0
 20
0
 30
0.0
 40
0.283465
 41
0.283465
  0
VERTEX
  8
0
 10
9.11317
 20
7.57813
 30
0.0
 40
0.00393701
 41
0.00393701
  0
VERTEX
  8
0
 10
9.11615
 20
7.55931
 30
0.0
 40
0.00393701
 41
0.00393701
  0
SEQEND
 8
0
  0
POLYLINE
  8
0
 62
     0
 66
     1
 10
0
 20
0
 30
0.0
 70
     1
 40
0
 41
0
  0
VERTEX
  8
0
 10
3.06733
 20
5.05376
 30
0.0
 40
0
 41
0
  0
VERTEX
  8
0
 10
3.06435
 20
5.03494
 30
0.0
 40
0
 41
0
  0
SEQEND
 8
0
  0
POLYLINE
  8
0
 62
     0
 66
     1
 10
0
 20
0
 30
0.0
 40
0.283465
 41
0.283465
  0
VERTEX
  8
0
 10
3.06733
 20
5.05376
 30
0.0
 40
0.00393701
 41
0.00393701
  0
VERTEX
  8
0
 10
3.06435
 20
5.03494
 30
0.0
 40
0.00393701
 41
0.00393701
  0
SEQEND
 8
0
  0
POLYLINE
  8
0
 62
     0
 66
     1
 10
0
 20
0
 30
0.0
 70
     1
 40
0
 41
0
  0
VERTEX
  8
0
 10
3.06435
 20
5.03494
 30
0.0
 40
0
 41
0
  0
VERTEX
  8
0
 10
3.05567
 20
5.0179
 30
0.0
 40
0
 41
0
  0
SEQEND
 8
0
  0
POLYLINE
  8
0
 62
     0
 66
     1
 10
0
 20
0
 30
0.0
 40
0.283465
 41
0.283465
  0
VERTEX
  8
0
 10
3.06435
 20
5.03494
 30
0.0
 40
0.00393701
 41
0.00393701
  0
VERTEX
  8
0
 10
3.05567
 20
5.0179
 30
0.0
 40
0.00393701
 41
0.00393701
  0
SEQEND
 8
0
  0
POLYLINE
  8
0
 62
     0
 66
     1
 10
0
 20
0
 30
0.0
 70
     1
 40
0
 41
0
  0
VERTEX
  8
0
 10
3.05567
 20
5.0179
 30
0.0
 40
0
 41
0
  0
VERTEX
  8
0
 10
3.04221
 20
5.00439
 30
0.0
 40
0
 41
0
  0
SEQEND
 8
0
  0
POLYLINE
  8
0
 62
     0
 66
     1
 10
0
 20
0
 30
0.0
 40
0.283465
 41
0.283465
  0
VERTEX
  8
0
 10
3.05567
 20
5.0179
 30
0.0
 40
0.00393701
 41
0.00393701
  0
VERTEX
  8
0
 10
3.04221
 20
5.00439
 30
0.0
 40
0.00393701
 41
0.00393701
  0
SEQEND
 8
0
  0
POLYLINE
  8
0
 62
     0
 66
     1
 10
0
 20
0
 30
0.0
 70
     1
 40
0
 41
0
  0
VERTEX
  8
0
 10
3.04221
 20
5.00439
 30
0.0
 40
0
 41
0
  0
VERTEX
  8
0
 10
3.02518
 20
4.99571
 30
0.0
 40
0
 41
0
  0
SEQEND
 8
0
  0
POLYLINE
  8
0
 62
     0
 66
     1
 10
0
 20
0
 30
0.0
 40
0.283465
 41
0.283465
  0
VERTEX
  8
0
 10
3.04221
 20
5.00439
 30
0.0
 40
0.00393701
 41
0.00393701
  0
VERTEX
  8
0
 10
3.02518
 20
4.99571
 30
0.0
 40
0.00393701
 41
0.00393701
  0
SEQEND
 8
0
  0
POLYLINE
  8
0
 62
     0
 66
     1
 10
0
 20
0
 30
0.0
 70
     1
 40
0
 41
0
  0
VERTEX
  8
0
 10
3.02518
 20
4.99571
 30
0.0
 40
0
 41
0
  0
VERTEX
  8
0
 10
3.00629
 20
4.99274
 30
0.0
 40
0
 41
0
  0
SEQEND
 8
0
  0
POLYLINE
  8
0
 62
     0
 66
     1
 10
0
 20
0
 30
0.0
 40
0.283465
 41
0.283465
  0
VERTEX
  8
0
 10
3.02518
 20
4.99571
 30
0.0
 40
0.00393701
 41
0.00393701
  0
VERTEX
  8
0
 10
3.00629
 20
4.99274
 30
0.0
 40
0.00393701
 41
0.00393701
  0
SEQEND
 8
0
  0
POLYLINE
  8
0
 62
     0
 66
     1
 10
0
 20
0
 30
0.0
 70
     1
 40
0
 41
0
  0
VERTEX
  8
0
 10
3.00629
 20
4.99274
 30
0.0
 40
0
 41
0
  0
VERTEX
  8
0
 10
2.98747
 20
4.99571
 30
0.0
 40
0
 41
0
  0
SEQEND
 8
0
  0
POLYLINE
  8
0
 62
     0
 66
     1
 10
0
 20
0
 30
0.0
 40
0.283465
 41
0.283465
  0
VERTEX
  8
0
 10
3.00629
 20
4.99274
 30
0.0
 40
0.00393701
 41
0.00393701
  0
VERTEX
  8
0
 10
2.98747
 20
4.99571
 30
0.0
 40
0.00393701
 41
0.00393701
  0
SEQEND
 8
0
  0
POLYLINE
  8
0
 62
     0
 66
     1
 10
0
 20
0
 30
0.0
 70
     1
 40
0
 41
0
  0
VERTEX
  8
0
 10
2.98747
 20
4.99571
 30
0.0
 40
0
 41
0
  0
VERTEX
  8
0
 10
2.97043
 20
5.00439
 30
0.0
 40
0
 41
0
  0
SEQEND
 8
0
  0
POLYLINE
  8
0
 62
     0
 66
     1
 10
0
 20
0
 30
0.0
 40
0.283465
 41
0.283465
  0
VERTEX
  8
0
 10
2.98747
 20
4.99571
 30
0.0
 40
0.00393701
 41
0.00393701
  0
VERTEX
  8
0
 10
2.97043
 20
5.00439
 30
0.0
 40
0.00393701
 41
0.00393701
  0
SEQEND
 8
0
  0
POLYLINE
  8
0
 62
     0
 66
     1
 10
0
 20
0
 30
0.0
 70
     1
 40
0
 41
0
  0
VERTEX
  8
0
 10
2.97043
 20
5.00439
 30
0.0
 40
0
 41
0
  0
VERTEX
  8
0
 10
2.95692
 20
5.0179
 30
0.0
 40
0
 41
0
  0
SEQEND
 8
0
  0
POLYLINE
  8
0
 62
     0
 66
     1
 10
0
 20
0
 30
0.0
 40
0.283465
 41
0.283465
  0
VERTEX
  8
0
 10
2.97043
 20
5.00439
 30
0.0
 40
0.00393701
 41
0.00393701
  0
VERTEX
  8
0
 10
2.95692
 20
5.0179
 30
0.0
 40
0.00393701
 41
0.00393701
  0
SEQEND
 8
0
  0
POLYLINE
  8
0
 62
     0
 66
     1
 10
0
 20
0
 30
0.0
 70
     1
 40
0
 41
0
  0
VERTEX
  8
0
 10
2.95692
 20
5.0179
 30
0.0
 40
0
 41
0
  0
VERTEX
  8
0
 10
2.94829
 20
5.03494
 30
0.0
 40
0
 41
0
  0
SEQEND
 8
0
  0
POLYLINE
  8
0
 62
     0
 66
     1
 10
0
 20
0
 30
0.0
 40
0.283465
 41
0.283465
  0
VERTEX
  8
0
 10
2.95692
 20
5.0179
 30
0.0
 40
0.00393701
 41
0.00393701
  0
VERTEX
  8
0
 10
2.94829
 20
5.03494
 30
0.0
 40
0.00393701
 41
0.00393701
  0
SEQEND
 8
0
  0
POLYLINE
  8
0
 62
     0
 66
     1
 10
0
 20
0
 30
0.0
 70
     1
 40
0
 41
0
  0
VERTEX
  8
0
 10
2.94829
 20
5.03494
 30
0.0
 40
0
 41
0
  0
VERTEX
  8
0
 10
2.94532
 20
5.05376
 30
0.0
 40
0
 41
0
  0
SEQEND
 8
0
  0
POLYLINE
  8
0
 62
     0
 66
     1
 10
0
 20
0
 30
0.0
 40
0.283465
 41
0.283465
  0
VERTEX
  8
0
 10
2.94829
 20
5.03494
 30
0.0
 40
0.00393701
 41
0.00393701
  0
VERTEX
  8
0
 10
2.94532
 20
5.05376
 30
0.0
 40
0.00393701
 41
0.00393701
  0
SEQEND
 8
0
  0
POLYLINE
  8
0
 62
     0
 66
     1
 10
0
 20
0
 30
0.0
 70
     1
 40
0
 41
0
  0
VERTEX
  8
0
 10
2.94532
 20
5.05376
 30
0.0
 40
0
 41
0
  0
VERTEX
  8
0
 10
2.94829
 20
5.07264
 30
0.0
 40
0
 41
0
  0
SEQEND
 8
0
  0
POLYLINE
  8
0
 62
     0
 66
     1
 10
0
 20
0
 30
0.0
 40
0.283465
 41
0.283465
  0
VERTEX
  8
0
 10
2.94532
 20
5.05376
 30
0.0
 40
0.00393701
 41
0.00393701
  0
VERTEX
  8
0
 10
2.94829
 20
5.07264
 30
0.0
 40
0.00393701
 41
0.00393701
  0
SEQEND
 8
0
  0
POLYLINE
  8
0
 62
     0
 66
     1
 10
0
 20
0
 30
0.0
 70
     1
 40
0
 41
0
  0
VERTEX
  8
0
 10
2.94829
 20
5.07264
 30
0.0
 40
0
 41
0
  0
VERTEX
  8
0
 10
2.95692
 20
5.08963
 30
0.0
 40
0
 41
0
  0
SEQEND
 8
0
  0
POLYLINE
  8
0
 62
     0
 66
     1
 10
0
 20
0
 30
0.0
 40
0.283465
 41
0.283465
  0
VERTEX
  8
0
 10
2.94829
 20
5.07264
 30
0.0
 40
0.00393701
 41
0.00393701
  0
VERTEX
  8
0
 10
2.95692
 20
5.08963
 30
0.0
 40
0.00393701
 41
0.00393701
  0
SEQEND
 8
0
  0
POLYLINE
  8
0
 62
     0
 66
     1
 10
0
 20
0
 30
0.0
 70
     1
 40
0
 41
0
  0
VERTEX
  8
0
 10
2.95692
 20
5.08963
 30
0.0
 40
0
 41
0
  0
VERTEX
  8
0
 10
2.97043
 20
5.10314
 30
0.0
 40
0
 41
0
  0
SEQEND
 8
0
  0
POLYLINE
  8
0
 62
     0
 66
     1
 10
0
 20
0
 30
0.0
 40
0.283465
 41
0.283465
  0
VERTEX
  8
0
 10
2.95692
 20
5.08963
 30
0.0
 40
0.00393701
 41
0.00393701
  0
VERTEX
  8
0
 10
2.97043
 20
5.10314
 30
0.0
 40
0.00393701
 41
0.00393701
  0
SEQEND
 8
0
  0
POLYLINE
  8
0
 62
     0
 66
     1
 10
0
 20
0
 30
0.0
 70
     1
 40
0
 41
0
  0
VERTEX
  8
0
 10
2.97043
 20
5.10314
 30
0.0
 40
0
 41
0
  0
VERTEX
  8
0
 10
2.98747
 20
5.11182
 30
0.0
 40
0
 41
0
  0
SEQEND
 8
0
  0
POLYLINE
  8
0
 62
     0
 66
     1
 10
0
 20
0
 30
0.0
 40
0.283465
 41
0.283465
  0
VERTEX
  8
0
 10
2.97043
 20
5.10314
 30
0.0
 40
0.00393701
 41
0.00393701
  0
VERTEX
  8
0
 10
2.98747
 20
5.11182
 30
0.0
 40
0.00393701
 41
0.00393701
  0
SEQEND
 8
0
  0
POLYLINE
  8
0
 62
     0
 66
     1
 10
0
 20
0
 30
0.0
 70
     1
 40
0
 41
0
  0
VERTEX
  8
0
 10
2.98747
 20
5.11182
 30
0.0
 40
0
 41
0
  0
VERTEX
  8
0
 10
3.00629
 20
5.11481
 30
0.0
 40
0
 41
0
  0
SEQEND
 8
0
  0
POLYLINE
  8
0
 62
     0
 66
     1
 10
0
 20
0
 30
0.0
 40
0.283465
 41
0.283465
  0
VERTEX
  8
0
 10
2.98747
 20
5.11182
 30
0.0
 40
0.00393701
 41
0.00393701
  0
VERTEX
  8
0
 10
3.00629
 20
5.11481
 30
0.0
 40
0.00393701
 41
0.00393701
  0
SEQEND
 8
0
  0
POLYLINE
  8
0
 62
     0
 66
     1
 10
0
 20
0
 30
0.0
 70
     1
 40
0
 41
0
  0
VERTEX
  8
0
 10
3.00629
 20
5.11481
 30
0.0
 40
0
 41
0
  0
VERTEX
  8
0
 10
3.02518
 20
5.11182
 30
0.0
 40
0
 41
0
  0
SEQEND
 8
0
  0
POLYLINE
  8
0
 62
     0
 66
     1
 10
0
 20
0
 30
0.0
 40
0.283465
 41
0.283465
  0
VERTEX
  8
0
 10
3.00629
 20
5.11481
 30
0.0
 40
0.00393701
 41
0.00393701
  0
VERTEX
  8
0
 10
3.02518
 20
5.11182
 30
0.0
 40
0.00393701
 41
0.00393701
  0
SEQEND
 8
0
  0
POLYLINE
  8
0
 62
     0
 66
     1
 10
0
 20
0
 30
0.0
 70
     1
 40
0
 41
0
  0
VERTEX
  8
0
 10
3.02518
 20
5.11182
 30
0.0
 40
0
 41
0
  0
VERTEX
  8
0
 10
3.04221
 20
5.10314
 30
0.0
 40
0
 41
0
  0
SEQEND
 8
0
  0
POLYLINE
  8
0
 62
     0
 66
     1
 10
0
 20
0
 30
0.0
 40
0.283465
 41
0.283465
  0
VERTEX
  8
0
 10
3.02518
 20
5.11182
 30
0.0
 40
0.00393701
 41
0.00393701
  0
VERTEX
  8
0
 10
3.04221
 20
5.10314
 30
0.0
 40
0.00393701
 41
0.00393701
  0
SEQEND
 8
0
  0
POLYLINE
  8
0
 62
     0
 66
     1
 10
0
 20
0
 30
0.0
 70
     1
 40
0
 41
0
  0
VERTEX
  8
0
 10
3.04221
 20
5.10314
 30
0.0
 40
0
 41
0
  0
VERTEX
  8
0
 10
3.05567
 20
5.08963
 30
0.0
 40
0
 41
0
  0
SEQEND
 8
0
  0
POLYLINE
  8
0
 62
     0
 66
     1
 10
0
 20
0
 30
0.0
 40
0.283465
 41
0.283465
  0
VERTEX
  8
0
 10
3.04221
 20
5.10314
 30
0.0
 40
0.00393701
 41
0.00393701
  0
VERTEX
  8
0
 10
3.05567
 20
5.08963
 30
0.0
 40
0.00393701
 41
0.00393701
  0
SEQEND
 8
0
  0
POLYLINE
  8
0
 62
     0
 66
     1
 10
0
 20
0
 30
0.0
 70
     1
 40
0
 41
0
  0
VERTEX
  8
0
 10
3.05567
 20
5.08963
 30
0.0
 40
0
 41
0
  0
VERTEX
  8
0
 10
3.06435
 20
5.07264
 30
0.0
 40
0
 41
0
  0
SEQEND
 8
0
  0
POLYLINE
  8
0
 62
     0
 66
     1
 10
0
 20
0
 30
0.0
 40
0.283465
 41
0.283465
  0
VERTEX
  8
0
 10
3.05567
 20
5.08963
 30
0.0
 40
0.00393701
 41
0.00393701
  0
VERTEX
  8
0
 10
3.06435
 20
5.07264
 30
0.0
 40
0.00393701
 41
0.00393701
  0
SEQEND
 8
0
  0
POLYLINE
  8
0
 62
     0
 66
     1
 10
0
 20
0
 30
0.0
 70
     1
 40
0
 41
0
  0
VERTEX
  8
0
 10
3.06435
 20
5.07264
 30
0.0
 40
0
 41
0
  0
VERTEX
  8
0
 10
3.06733
 20
5.05376
 30
0.0
 40
0
 41
0
  0
SEQEND
 8
0
  0
POLYLINE
  8
0
 62
     0
 66
     1
 10
0
 20
0
 30
0.0
 40
0.283465
 41
0.283465
  0
VERTEX
  8
0
 10
3.06435
 20
5.07264
 30
0.0
 40
0.00393701
 41
0.00393701
  0
VERTEX
  8
0
 10
3.06733
 20
5.05376
 30
0.0
 40
0.00393701
 41
0.00393701
  0
SEQEND
 8
0
  0
ENDSEC
  0
EOF
