  0
SECTION
  2
HEADER
  9
$ACADVER
  1
AC1009
  9
$INSBASE
 10
0
 20
0
 30
0
  9
$EXTMIN
 10
0
 20
0
  9
$EXTMAX
 10
336.40000000000003
 20
237.80000000000001
  9
$LIMMIN
 10
0
 20
0
  9
$LIMMAX
 10
336.40000000000003
 20
237.80000000000001
  9
$LTSCALE
 40
0.1
  0
ENDSEC
  0
SECTION
  2
TABLES
  0
TABLE
  2
LTYPE
 70
9
  0
LTYPE
  2
CONTINUOUS
 70
64
  3
SolidLine
 72
65
 73
0
 40
0.0
  0
LTYPE
  2
DOT
 70
64
  3
--  --  --  --  --  --  --  --     
 72
65
 73
2
 40
3.0
 49
1.0
 49
-2.0
  0
LTYPE
  2
DASHED
 70
64
  3
----    ----    ----    ----    
 72
65
 73
2
 40
5.0
 49
2.0
 49
-3.0
  0
LTYPE
  2
CENTER
 70
64
  3
----- - ----- - ----- - ----- - 
 72
65
 73
4
 40
13.0
 49
6.0
 49
-3.0
 49
1.0
 49
-3.0
  0
LTYPE
  2
PHANTOM
 70
64
  3
--- - - --- - - --- - - --- - -
 72
65
 73
6
 40
16.0
 49
5.0
 49
-3.0
 49
1.0
 49
-3.0
 49
1.0
 49
-3.0
  0
ENDTAB
  0
TABLE
  2
STYLE
  5
3
100
AcDbSymbolTable
 70
1
  0
STYLE
  5
10
100
AcDbSymbolTableRecord
100
AcDbTextStyleTableRecord
  2
STANDARD
 70
0
 40
0.0
 41
1.0
 50
0.0
 71
0
 42
0.2
  3
txt
  4
bigfont.shx
  0
STYLE
  5
26
100
AcDbSymbolTableRecord
100
AcDbTextStyleTableRecord
  2
TATEGAKI
 70
68
 40
0.0
 41
1.0
 50
0.0
 71
0
 42
1.0
  3
txt
  4
bigfont.shx
  0
ENDTAB
  0
TABLE
  2
LAYER
 70
2
  0
LAYER
  2
_0-0_
 70
64
 62
7
  6
CONTINUOUS
  0
LAYER
  2
ADD_LINE
 70
64
 62
7
  6
CONTINUOUS
  0
ENDTAB
  0
ENDSEC
  0
SECTION
  2
ENTITIES
  0
LINE
 10
673.228346456693
 20
-177.16535433070868
 30
0.0
 11
673.1299949591341
 21
-185.5133025000981
 31
0.0
  0
LINE
 10
673.1299949591341
 20
-185.5133025000981
 30
0.0
 11
672.834995065265
 21
-193.8566163931805
 31
0.0
  0
LINE
 10
672.834995065265
 20
-193.8566163931805
 30
0.0
 11
672.3435105411982
 21
-202.19066430631892
 31
0.0
  0
LINE
 10
672.3435105411982
 20
-202.19066430631892
 30
0.0
 11
671.6558142294379
 21
-210.51081967978857
 31
0.0
  0
LINE
 10
671.6558142294379
 20
-210.51081967978857
 30
0.0
 11
670.7722878974149
 21
-218.81246366616296
 31
0.0
  0
LINE
 10
670.7722878974149
 20
-218.81246366616296
 30
0.0
 11
669.693422025552
 21
-227.0909876944191
 31
0.0
  0
LINE
 10
669.693422025552
 20
-227.0909876944191
 30
0.0
 11
668.4198155349787
 21
-235.3417960283373
 31
0.0
  0
LINE
 10
668.4198155349787
 20
-235.3417960283373
 30
0.0
 11
666.9521754550473
 21
-243.56030831777647
 31
0.0
  0
LINE
 10
666.9521754550473
 20
-243.56030831777647
 30
0.0
 11
665.2913165308314
 21
-251.74196214140756
 31
0.0
  0
LINE
 10
665.2913165308314
 20
-251.74196214140756
 30
0.0
 11
663.4381607708303
 21
-259.8822155394941
 31
0.0
  0
LINE
 10
663.4381607708303
 20
-259.8822155394941
 30
0.0
 11
661.3937369351247
 21
-267.97654953531384
 31
0.0
  0
LINE
 10
661.3937369351247
 20
-267.97654953531384
 30
0.0
 11
659.1591799642712
 21
-276.02047064382145
 31
0.0
  0
LINE
 10
659.1591799642712
 20
-276.02047064382145
 30
0.0
 11
656.7357303492524
 21
-284.0095133661599
 31
0.0
  0
LINE
 10
656.7357303492524
 20
-284.0095133661599
 30
0.0
 11
654.124733442831
 21
-291.93924266863564
 31
0.0
  0
LINE
 10
654.124733442831
 20
-291.93924266863564
 30
0.0
 11
651.3276387126913
 21
-299.805256444781
 31
0.0
  0
LINE
 10
651.3276387126913
 20
-299.805256444781
 30
0.0
 11
648.3459989367822
 21
-307.6031879591379
 31
0.0
  0
LINE
 10
648.3459989367822
 20
-307.6031879591379
 30
0.0
 11
645.1814693413086
 21
-315.32870827140533
 31
0.0
  0
LINE
 10
645.1814693413086
 20
-315.32870827140533
 30
0.0
 11
641.8358066818507
 21
-322.9775286396055
 31
0.0
  0
LINE
 10
641.8358066818507
 20
-322.9775286396055
 30
0.0
 11
638.3108682681186
 21
-330.54540290093416
 31
0.0
  0
LINE
 10
638.3108682681186
 20
-330.54540290093416
 30
0.0
 11
634.6086109328862
 21
-338.0281298289733
 31
0.0
  0
LINE
 10
634.6086109328862
 20
-338.0281298289733
 30
0.0
 11
630.7310899456768
 21
-345.4215554659587
 31
0.0
  0
LINE
 10
630.7310899456768
 20
-345.4215554659587
 30
0.0
 11
626.6804578718001
 21
-352.72157542880586
 31
0.0
  0
LINE
 10
626.6804578718001
 20
-352.72157542880586
 30
0.0
 11
622.4589633773799
 21
-359.9241371876153
 31
0.0
  0
LINE
 10
622.4589633773799
 20
-359.9241371876153
 30
0.0
 11
618.068949981029
 21
-367.0252423153926
 31
0.0
  0
LINE
 10
618.068949981029
 20
-367.0252423153926
 30
0.0
 11
613.5128547528705
 21
-374.02094870773306
 31
0.0
  0
LINE
 10
613.5128547528705
 20
-374.02094870773306
 30
0.0
 11
608.7932069616226
 21
-380.9073727712405
 31
0.0
  0
LINE
 10
608.7932069616226
 20
-380.9073727712405
 30
0.0
 11
603.9126266705024
 21
-387.6806915794626
 31
0.0
  0
LINE
 10
603.9126266705024
 20
-387.6806915794626
 30
0.0
 11
598.873823282725
 21
-394.3371449951492
 31
0.0
  0
LINE
 10
598.873823282725
 20
-394.3371449951492
 30
0.0
 11
593.6795940374059
 21
-400.8730377576536
 31
0.0
  0
LINE
 10
593.6795940374059
 20
-400.8730377576536
 30
0.0
 11
588.332822456704
 21
-407.2847415343171
 31
0.0
  0
LINE
 10
588.332822456704
 20
-407.2847415343171
 30
0.0
 11
582.8364767450631
 21
-413.5686969347007
 31
0.0
  0
LINE
 10
582.8364767450631
 20
-413.5686969347007
 30
0.0
 11
577.193608141445
 21
-419.72141548654326
 31
0.0
  0
LINE
 10
577.193608141445
 20
-419.72141548654326
 30
0.0
 11
571.4073492254665
 21
-425.7394815723505
 31
0.0
  0
LINE
 10
571.4073492254665
 20
-425.7394815723505
 30
0.0
 11
565.4809121783791
 21
-431.6195543255394
 31
0.0
  0
LINE
 10
565.4809121783791
 20
-431.6195543255394
 30
0.0
 11
559.4175869998613
 21
-437.3583694850855
 31
0.0
  0
LINE
 10
559.4175869998613
 20
-437.3583694850855
 30
0.0
 11
553.220739681609
 21
-442.9527412076432
 31
0.0
  0
LINE
 10
553.220739681609
 20
-442.9527412076432
 30
0.0
 11
546.8938103387406
 21
-448.3995638361336
 31
0.0
  0
LINE
 10
546.8938103387406
 20
-448.3995638361336
 30
0.0
 11
540.440311300053
 21
-453.6958136238177
 31
0.0
  0
LINE
 10
540.440311300053
 20
-453.6958136238177
 30
0.0
 11
533.863825158189
 21
-458.8385504128974
 31
0.0
  0
LINE
 10
533.863825158189
 20
-458.8385504128974
 30
0.0
 11
527.1680027807977
 21
-463.8249192667138
 31
0.0
  0
LINE
 10
527.1680027807977
 20
-463.8249192667138
 30
0.0
 11
520.3565612837943
 21
-468.65215205463545
 31
0.0
  0
LINE
 10
520.3565612837943
 20
-468.65215205463545
 30
0.0
 11
513.433281967842
 21
-473.31756898875716
 31
0.0
  0
LINE
 10
513.433281967842
 20
-473.31756898875716
 30
0.0
 11
506.40200821920143
 21
-477.8185801115565
 31
0.0
  0
LINE
 10
506.40200821920143
 20
-477.8185801115565
 30
0.0
 11
499.2666433761159
 21
-482.1526867336809
 31
0.0
  0
LINE
 10
499.2666433761159
 20
-482.1526867336809
 30
0.0
 11
492.0311485619132
 21
-486.3174828210699
 31
0.0
  0
LINE
 10
492.0311485619132
 20
-486.3174828210699
 30
0.0
 11
484.69954048603
 21
-490.31065633063946
 31
0.0
  0
LINE
 10
484.69954048603
 20
-490.31065633063946
 30
0.0
 11
477.2758892141768
 21
-494.12999049378845
 31
0.0
  0
LINE
 10
477.2758892141768
 20
-494.12999049378845
 30
0.0
 11
469.764315908884
 21
-497.7733650470148
 31
0.0
  0
LINE
 10
469.764315908884
 20
-497.7733650470148
 30
0.0
 11
462.16899054168135
 21
-501.2387574089576
 31
0.0
  0
LINE
 10
462.16899054168135
 20
-501.2387574089576
 30
0.0
 11
454.4941295781815
 21
-504.52424380321196
 31
0.0
  0
LINE
 10
454.4941295781815
 20
-504.52424380321196
 30
0.0
 11
446.74399363735347
 21
-507.6280003262932
 31
0.0
  0
LINE
 10
446.74399363735347
 20
-507.6280003262932
 30
0.0
 11
438.92288512628437
 21
-510.5483039601587
 31
0.0
  0
LINE
 10
438.92288512628437
 20
-510.5483039601587
 30
0.0
 11
431.03514585174315
 21
-513.283533528722
 31
0.0
  0
LINE
 10
431.03514585174315
 20
-513.283533528722
 30
0.0
 11
423.0851546098715
 21
-515.8321705978336
 31
0.0
  0
LINE
 10
423.0851546098715
 20
-515.8321705978336
 30
0.0
 11
415.0773247553413
 21
-518.1928003182215
 31
0.0
  0
LINE
 10
415.0773247553413
 20
-518.1928003182215
 30
0.0
 11
407.0161017513265
 21
-520.3641122109324
 31
0.0
  0
LINE
 10
407.0161017513265
 20
-520.3641122109324
 30
0.0
 11
398.905960701651
 21
-522.3449008948286
 31
0.0
  0
LINE
 10
398.905960701651
 20
-522.3449008948286
 30
0.0
 11
390.75140386648076
 21
-524.1340667557438
 31
0.0
  0
LINE
 10
390.75140386648076
 20
-524.1340667557438
 30
0.0
 11
382.55695816294224
 21
-525.7306165569222
 31
0.0
  0
LINE
 10
382.55695816294224
 20
-525.7306165569222
 30
0.0
 11
374.32717265205036
 21
-527.1336639904032
 31
0.0
  0
LINE
 10
374.32717265205036
 20
-527.1336639904032
 30
0.0
 11
366.06661601334525
 21
-528.3424301690462
 31
0.0
  0
LINE
 10
366.06661601334525
 20
-528.3424301690462
 30
0.0
 11
357.77987400863816
 21
-529.356244058922
 31
0.0
  0
LINE
 10
357.77987400863816
 20
-529.356244058922
 30
0.0
 11
349.47154693627203
 21
-530.1745428518296
 31
0.0
  0
LINE
 10
349.47154693627203
 20
-530.1745428518296
 30
0.0
 11
341.1462470773159
 21
-530.796872277734
 31
0.0
  0
LINE
 10
341.1462470773159
 20
-530.796872277734
 30
0.0
 11
332.8085961351031
 21
-531.2228868569491
 31
0.0
  0
LINE
 10
332.8085961351031
 20
-531.2228868569491
 30
0.0
 11
324.4632226695428
 21
-531.4523500919271
 31
0.0
  0
LINE
 10
324.4632226695428
 20
-531.4523500919271
 30
0.0
 11
316.114759527622
 21
-531.4851345985476
 31
0.0
  0
LINE
 10
316.114759527622
 20
-531.4851345985476
 30
0.0
 11
307.76784127152933
 21
-531.321222176834
 31
0.0
  0
LINE
 10
307.76784127152933
 20
-531.321222176834
 30
0.0
 11
299.4271016058263
 21
-530.9607038210568
 31
0.0
  0
LINE
 10
299.4271016058263
 20
-530.9607038210568
 30
0.0
 11
291.0971708050943
 21
-530.4037796692186
 31
0.0
  0
LINE
 10
291.0971708050943
 20
-530.4037796692186
 30
0.0
 11
282.78267314348625
 21
-529.6507588919504
 31
0.0
  0
LINE
 10
282.78267314348625
 20
-529.6507588919504
 30
0.0
 11
274.48822432760875
 21
-528.702059520878
 31
0.0
  0
LINE
 10
274.48822432760875
 20
-528.702059520878
 30
0.0
 11
266.2184289341611
 21
-527.5582082165569
 31
0.0
  0
LINE
 10
266.2184289341611
 20
-527.5582082165569
 30
0.0
 11
257.9778778537525
 21
-526.219839976101
 31
0.0
  0
LINE
 10
257.9778778537525
 20
-526.219839976101
 30
0.0
 11
249.7711457423169
 21
-524.6876977806722
 31
0.0
  0
LINE
 10
249.7711457423169
 20
-524.6876977806722
 30
0.0
 11
241.60278848154005
 21
-522.9626321830208
 31
0.0
  0
LINE
 10
241.60278848154005
 20
-522.9626321830208
 30
0.0
 11
233.4773406497107
 21
-521.0456008353104
 31
0.0
  0
LINE
 10
233.4773406497107
 20
-521.0456008353104
 30
0.0
 11
225.3993130043954
 21
-518.9376679574876
 31
0.0
  0
LINE
 10
225.3993130043954
 20
-518.9376679574876
 30
0.0
 11
217.3731899783392
 21
-516.640003746491
 31
0.0
  0
LINE
 10
217.3731899783392
 20
-516.640003746491
 30
0.0
 11
209.4034271899793
 21
-514.1538837266293
 31
0.0
  0
LINE
 10
209.4034271899793
 20
-514.1538837266293
 30
0.0
 11
201.4944489699551
 21
-511.4806880414859
 31
0.0
  0
LINE
 10
201.4944489699551
 20
-511.4806880414859
 30
0.0
 11
193.6506459049877
 21
-508.6219006877483
 31
0.0
  0
LINE
 10
193.6506459049877
 20
-508.6219006877483
 30
0.0
 11
185.8763724004902
 21
-505.5791086913814
 31
0.0
  0
LINE
 10
185.8763724004902
 20
-505.5791086913814
 30
0.0
 11
178.17594426326679
 21
-502.3540012266076
 31
0.0
  0
LINE
 10
178.17594426326679
 20
-502.3540012266076
 30
0.0
 11
170.55363630563568
 21
-498.9483686781785
 31
0.0
  0
LINE
 10
170.55363630563568
 20
-498.9483686781785
 30
0.0
 11
163.01367997231355
 21
-495.3641016474623
 31
0.0
  0
LINE
 10
163.01367997231355
 20
-495.3641016474623
 30
0.0
 11
155.56026099137165
 21
-491.6031899028957
 31
0.0
  0
LINE
 10
155.56026099137165
 20
-491.6031899028957
 30
0.0
 11
148.19751705057328
 21
-487.66772127538474
 31
0.0
  0
LINE
 10
148.19751705057328
 20
-487.66772127538474
 30
0.0
 11
140.92953550037984
 21
-483.55988049926765
 31
0.0
  0
LINE
 10
140.92953550037984
 20
-483.55988049926765
 30
0.0
 11
133.76035108489995
 21
-479.2819479994814
 31
0.0
  0
LINE
 10
133.76035108489995
 20
-479.2819479994814
 30
0.0
 11
126.6939437020446
 21
-474.83629862560946
 31
0.0
  0
LINE
 10
126.6939437020446
 20
-474.83629862560946
 30
0.0
 11
119.73423619412694
 21
-470.2254003335062
 31
0.0
  0
LINE
 10
119.73423619412694
 20
-470.2254003335062
 30
0.0
 11
112.88509217013878
 21
-465.4518128152395
 31
0.0
  0
LINE
 10
112.88509217013878
 20
-465.4518128152395
 30
0.0
 11
106.15031386090729
 21
-460.518186078103
 31
0.0
  0
LINE
 10
106.15031386090729
 20
-460.518186078103
 30
0.0
 11
99.53364000832651
 21
-455.4272589734923
 31
0.0
  0
LINE
 10
99.53364000832651
 20
-455.4272589734923
 30
0.0
 11
93.03874378983424
 21
-450.18185767646065
 31
0.0
  0
LINE
 10
93.03874378983424
 20
-450.18185767646065
 30
0.0
 11
86.66923077928567
 21
-444.7848941167974
 31
0.0
  0
LINE
 10
86.66923077928567
 20
-444.7848941167974
 30
0.0
 11
80.42863694535589
 21
-439.2393643624995
 31
0.0
  0
LINE
 10
80.42863694535589
 20
-439.2393643624995
 30
0.0
 11
74.32042668858524
 21
-433.5483469565372
 31
0.0
  0
LINE
 10
74.32042668858524
 20
-433.5483469565372
 30
0.0
 11
68.3479909181525
 21
-427.71500120783185
 31
0.0
  0
LINE
 10
602.3622047244095
 20
-177.16535433070868
 30
0.0
 11
602.2835235263624
 21
-183.84371286622022
 31
0.0
  0
LINE
 10
602.2835235263624
 20
-183.84371286622022
 30
0.0
 11
602.0475236112671
 21
-190.51836398068613
 31
0.0
  0
LINE
 10
602.0475236112671
 20
-190.51836398068613
 30
0.0
 11
601.6543359920136
 21
-197.18560231119687
 31
0.0
  0
LINE
 10
601.6543359920136
 20
-197.18560231119687
 30
0.0
 11
601.1041789426055
 21
-203.84172660997257
 31
0.0
  0
LINE
 10
601.1041789426055
 20
-203.84172660997257
 30
0.0
 11
600.397357876987
 21
-210.4830417990721
 31
0.0
  0
LINE
 10
600.397357876987
 20
-210.4830417990721
 30
0.0
 11
599.5342651794967
 21
-217.10586102167701
 31
0.0
  0
LINE
 10
599.5342651794967
 20
-217.10586102167701
 30
0.0
 11
598.5153799870382
 21
-223.70650768881157
 31
0.0
  0
LINE
 10
598.5153799870382
 20
-223.70650768881157
 30
0.0
 11
597.3412679230929
 21
-230.2813175203629
 31
0.0
  0
LINE
 10
597.3412679230929
 20
-230.2813175203629
 30
0.0
 11
596.0125807837203
 21
-236.82664057926777
 31
0.0
  0
LINE
 10
596.0125807837203
 20
-236.82664057926777
 30
0.0
 11
594.5300561757193
 21
-243.33884329773701
 31
0.0
  0
LINE
 10
594.5300561757193
 20
-243.33884329773701
 30
0.0
 11
592.8945171071549
 21
-249.81431049439277
 31
0.0
  0
LINE
 10
592.8945171071549
 20
-249.81431049439277
 30
0.0
 11
591.1068715304722
 21
-256.24944738119893
 31
0.0
  0
LINE
 10
591.1068715304722
 20
-256.24944738119893
 30
0.0
 11
589.1681118384571
 21
-262.64068155906966
 31
0.0
  0
LINE
 10
589.1681118384571
 20
-262.64068155906966
 30
0.0
 11
587.0793143133201
 21
-268.98446500105024
 31
0.0
  0
LINE
 10
587.0793143133201
 20
-268.98446500105024
 30
0.0
 11
584.8416385292081
 21
-275.2772760219665
 31
0.0
  0
LINE
 10
584.8416385292081
 20
-275.2772760219665
 30
0.0
 11
582.4563267084808
 21
-281.51562123345207
 31
0.0
  0
LINE
 10
582.4563267084808
 20
-281.51562123345207
 30
0.0
 11
579.924703032102
 21
-287.696037483266
 31
0.0
  0
LINE
 10
579.924703032102
 20
-287.696037483266
 30
0.0
 11
577.2481729045357
 21
-293.8150937778262
 31
0.0
  0
LINE
 10
577.2481729045357
 20
-293.8150937778262
 30
0.0
 11
574.42822217355
 21
-299.869393186889
 31
0.0
  0
LINE
 10
574.42822217355
 20
-299.869393186889
 30
0.0
 11
571.4664163053642
 21
-305.8555747293204
 31
0.0
  0
LINE
 10
571.4664163053642
 20
-305.8555747293204
 30
0.0
 11
568.3643995155965
 21
-311.7703152389087
 31
0.0
  0
LINE
 10
568.3643995155965
 20
-311.7703152389087
 30
0.0
 11
565.1238938564952
 21
-317.6103312091864
 31
0.0
  0
LINE
 10
565.1238938564952
 20
-317.6103312091864
 30
0.0
 11
561.746698260959
 21
-323.37238061623395
 31
0.0
  0
LINE
 10
561.746698260959
 20
-323.37238061623395
 30
0.0
 11
558.2346875438784
 21
-329.05326471845575
 31
0.0
  0
LINE
 10
558.2346875438784
 20
-329.05326471845575
 30
0.0
 11
554.5898113613515
 21
-334.64982983232824
 31
0.0
  0
LINE
 10
554.5898113613515
 20
-334.64982983232824
 30
0.0
 11
550.8140931283531
 21
-340.1589690831341
 31
0.0
  0
LINE
 10
550.8140931283531
 20
-340.1589690831341
 30
0.0
 11
546.9096288954571
 21
-345.57762412971175
 31
0.0
  0
LINE
 10
546.9096288954571
 20
-345.57762412971175
 30
0.0
 11
542.8785861852351
 21
-350.9027868622611
 31
0.0
  0
LINE
 10
542.8785861852351
 20
-350.9027868622611
 30
0.0
 11
538.7232027889798
 21
-356.13150107226465
 31
0.0
  0
LINE
 10
538.7232027889798
 20
-356.13150107226465
 30
0.0
 11
534.4457855244183
 21
-361.26086409359544
 31
0.0
  0
LINE
 10
534.4457855244183
 20
-361.26086409359544
 30
0.0
 11
530.0487089551056
 21
-366.2880284139023
 31
0.0
  0
LINE
 10
530.0487089551056
 20
-366.2880284139023
 30
0.0
 11
525.5344140722112
 21
-371.21020325537637
 31
0.0
  0
LINE
 10
525.5344140722112
 20
-371.21020325537637
 30
0.0
 11
520.9054069394284
 21
-376.0246561240221
 31
0.0
  0
LINE
 10
520.9054069394284
 20
-376.0246561240221
 30
0.0
 11
516.1642573017585
 21
-380.72871432657325
 31
0.0
  0
LINE
 10
516.1642573017585
 20
-380.72871432657325
 30
0.0
 11
511.31359715894416
 21
-385.3197664542101
 31
0.0
  0
LINE
 10
511.31359715894416
 20
-385.3197664542101
 30
0.0
 11
506.3561193043423
 21
-389.79526383225635
 31
0.0
  0
LINE
 10
506.3561193043423
 20
-389.79526383225635
 30
0.0
 11
501.29457583004756
 21
-394.15272193504865
 31
0.0
  0
LINE
 10
501.29457583004756
 20
-394.15272193504865
 30
0.0
 11
496.1317765990976
 21
-398.3897217651958
 31
0.0
  0
LINE
 10
496.1317765990976
 20
-398.3897217651958
 30
0.0
 11
490.87058768560627
 21
-402.5039111964596
 31
0.0
  0
LINE
 10
490.87058768560627
 20
-402.5039111964596
 30
0.0
 11
485.5139297836933
 21
-406.4930062795127
 31
0.0
  0
LINE
 10
485.5139297836933
 20
-406.4930062795127
 30
0.0
 11
480.0647765860906
 21
-410.3547925098501
 31
0.0
  0
LINE
 10
480.0647765860906
 20
-410.3547925098501
 30
0.0
 11
474.52615313332876
 21
-414.0871260571475
 31
0.0
  0
LINE
 10
474.52615313332876
 20
-414.0871260571475
 30
0.0
 11
468.9011341344163
 21
-417.6879349553869
 31
0.0
  0
LINE
 10
468.9011341344163
 20
-417.6879349553869
 30
0.0
 11
463.1928422599478
 21
-421.15522025308644
 31
0.0
  0
LINE
 10
463.1928422599478
 20
-421.15522025308644
 30
0.0
 11
457.40444640858567
 21
-424.48705712299767
 31
0.0
  0
LINE
 10
457.40444640858567
 20
-424.48705712299767
 30
0.0
 11
451.5391599478791
 21
-427.6815959306533
 31
0.0
  0
LINE
 10
451.5391599478791
 20
-427.6815959306533
 30
0.0
 11
445.60023893039664
 21
-430.73706326117247
 31
0.0
  0
LINE
 10
445.60023893039664
 20
-430.73706326117247
 30
0.0
 11
439.59098028616233
 21
-433.65176290375365
 31
0.0
  0
LINE
 10
439.59098028616233
 20
-433.65176290375365
 30
0.0
 11
433.5147199924002
 21
-436.42407679330785
 31
0.0
  0
LINE
 10
433.5147199924002
 20
-436.42407679330785
 30
0.0
 11
427.3748312216003
 21
-439.05246590871127
 31
0.0
  0
LINE
 10
427.3748312216003
 20
-439.05246590871127
 30
0.0
 11
421.17472246893783
 21
-441.5354711271764
 31
0.0
  0
LINE
 10
421.17472246893783
 20
-441.5354711271764
 30
0.0
 11
414.9178356600827
 21
-443.8717140342687
 31
0.0
  0
LINE
 10
414.9178356600827
 20
-443.8717140342687
 30
0.0
 11
408.60764424044964
 21
-446.05989768911945
 31
0.0
  0
LINE
 10
408.60764424044964
 20
-446.05989768911945
 30
0.0
 11
402.24765124695233
 21
-448.09880734440856
 31
0.0
  0
LINE
 10
402.24765124695233
 20
-448.09880734440856
 30
0.0
 11
395.84138736332824
 21
-449.98731112071897
 31
0.0
  0
LINE
 10
395.84138736332824
 20
-449.98731112071897
 30
0.0
 11
389.3924089601163
 21
-451.7243606348876
 31
0.0
  0
LINE
 10
389.3924089601163
 20
-451.7243606348876
 30
0.0
 11
382.90429612037593
 21
-453.3089915820046
 31
0.0
  0
LINE
 10
382.90429612037593
 20
-453.3089915820046
 30
0.0
 11
376.38065065223975
 21
-454.7403242707368
 31
0.0
  0
LINE
 10
376.38065065223975
 20
-454.7403242707368
 30
0.0
 11
369.82509408940894
 21
-456.0175641116795
 31
0.0
  0
LINE
 10
369.82509408940894
 20
-456.0175641116795
 30
0.0
 11
363.24126568069545
 21
-457.14000205846435
 31
0.0
  0
LINE
 10
363.24126568069545
 20
-457.14000205846435
 30
0.0
 11
356.63282036973135
 21
-458.1070150013787
 31
0.0
  0
LINE
 10
356.63282036973135
 20
-458.1070150013787
 30
0.0
 11
350.0034267659657
 21
-458.91806611327934
 31
0.0
  0
LINE
 10
350.0034267659657
 20
-458.91806611327934
 30
0.0
 11
343.35676510807275
 21
-459.5727051476054
 31
0.0
  0
LINE
 10
343.35676510807275
 20
-459.5727051476054
 30
0.0
 11
336.6965252209078
 21
-460.07056868832905
 31
0.0
  0
LINE
 10
336.6965252209078
 20
-460.07056868832905
 30
0.0
 11
330.02640446713764
 21
-460.411380351701
 31
0.0
  0
LINE
 10
330.02640446713764
 20
-460.411380351701
 30
0.0
 11
323.3501056946894
 21
-460.59495093968343
 31
0.0
  0
LINE
 10
323.3501056946894
 20
-460.59495093968343
 30
0.0
 11
316.67133518115276
 21
-460.6211785449797
 31
0.0
  0
LINE
 10
316.67133518115276
 20
-460.6211785449797
 30
0.0
 11
309.9938005762786
 21
-460.490048607609
 31
0.0
  0
LINE
 10
309.9938005762786
 20
-460.490048607609
 30
0.0
 11
303.3212088437162
 21
-460.2016339229872
 31
0.0
  0
LINE
 10
303.3212088437162
 20
-460.2016339229872
 30
0.0
 11
296.65726420313064
 21
-459.75609460151657
 31
0.0
  0
LINE
 10
296.65726420313064
 20
-459.75609460151657
 30
0.0
 11
290.0056660738441
 21
-459.1536779797021
 31
0.0
  0
LINE
 10
290.0056660738441
 20
-459.1536779797021
 30
0.0
 11
283.3701070211421
 21
-458.3947184828441
 31
0.0
  0
LINE
 10
283.3701070211421
 20
-458.3947184828441
 30
0.0
 11
276.75427070638403
 21
-457.4796374393872
 31
0.0
  0
LINE
 10
276.75427070638403
 20
-457.4796374393872
 30
0.0
 11
270.16182984205716
 21
-456.40894284702256
 31
0.0
  0
LINE
 10
270.16182984205716
 20
-456.40894284702256
 30
0.0
 11
263.59644415290865
 21
-455.1832290906796
 31
0.0
  0
LINE
 10
263.59644415290865
 20
-455.1832290906796
 30
0.0
 11
257.0617583442872
 21
-453.80317661255845
 31
0.0
  0
LINE
 10
257.0617583442872
 20
-453.80317661255845
 30
0.0
 11
250.5614000788237
 21
-452.2695515343901
 31
0.0
  0
LINE
 10
250.5614000788237
 20
-452.2695515343901
 30
0.0
 11
244.09897796257144
 21
-450.5832052321318
 31
0.0
  0
LINE
 10
244.09897796257144
 20
-450.5832052321318
 30
0.0
 11
237.67807954172645
 21
-448.7450738633346
 31
0.0
  0
LINE
 10
237.67807954172645
 20
-448.7450738633346
 30
0.0
 11
231.3022693110386
 21
-446.7561778474452
 31
0.0
  0
LINE
 10
231.3022693110386
 20
-446.7561778474452
 30
0.0
 11
224.9750867350192
 21
-444.6176212993305
 31
0.0
  0
LINE
 10
224.9750867350192
 20
-444.6176212993305
 30
0.0
 11
218.70004428304526
 21
-442.33059141634044
 31
0.0
  0
LINE
 10
218.70004428304526
 20
-442.33059141634044
 30
0.0
 11
212.4806254794473
 21
-439.8963578192469
 31
0.0
  0
LINE
 10
212.4806254794473
 20
-439.8963578192469
 30
0.0
 11
206.32028296966854
 21
-437.3162718474278
 31
0.0
  0
LINE
 10
206.32028296966854
 20
-437.3162718474278
 30
0.0
 11
200.22243660356366
 21
-434.5917658086845
 31
0.0
  0
LINE
 10
200.22243660356366
 20
-434.5917658086845
 30
0.0
 11
194.19047153690596
 21
-431.7243521841116
 31
0.0
  0
LINE
 10
194.19047153690596
 20
-431.7243521841116
 30
0.0
 11
188.22773635215245
 21
-428.7156227884583
 31
0.0
  0
LINE
 10
188.22773635215245
 20
-428.7156227884583
 30
0.0
 11
182.33754119951377
 21
-425.56724788644954
 31
0.0
  0
LINE
 10
182.33754119951377
 20
-425.56724788644954
 30
0.0
 11
176.523155959359
 21
-422.28097526555587
 31
0.0
  0
LINE
 10
176.523155959359
 20
-422.28097526555587
 30
0.0
 11
170.78780842697506
 21
-418.8586292657269
 31
0.0
  0
LINE
 10
170.78780842697506
 20
-418.8586292657269
 30
0.0
 11
165.13468252069083
 21
-415.3021097666293
 31
0.0
  0
LINE
 10
165.13468252069083
 20
-415.3021097666293
 30
0.0
 11
159.56691651435668
 21
-411.6133911329467
 31
0.0
  0
LINE
 10
159.56691651435668
 20
-411.6133911329467
 30
0.0
 11
154.08760129516617
 21
-407.79452111833336
 31
0.0
  0
LINE
 10
154.08760129516617
 20
-407.79452111833336
 30
0.0
 11
148.69977864778096
 21
-403.8476197286241
 31
0.0
  0
LINE
 10
148.69977864778096
 20
-403.8476197286241
 30
0.0
 11
143.40643956571634
 21
-399.7748780449356
 31
0.0
  0
LINE
 10
143.40643956571634
 20
-399.7748780449356
 30
0.0
 11
138.2105225909225
 21
-395.5785570073103
 31
0.0
  0
LINE
 10
138.2105225909225
 20
-395.5785570073103
 30
0.0
 11
133.11491218248366
 21
-391.26098615957966
 31
0.0
  0
LINE
 10
133.11491218248366
 20
-391.26098615957966
 30
0.0
 11
128.12243711533984
 21
-386.8245623561413
 31
0.0
  0
LINE
 10
128.12243711533984
 20
-386.8245623561413
 30
0.0
 11
123.23586890992333
 21
-382.2717484313715
 31
0.0
  0
LINE
 10
123.23586890992333
 20
-382.2717484313715
 30
0.0
 11
118.4579202935771
 21
-377.6050718324072
 31
0.0
  0
LINE
 10
602.3622047244095
 20
-177.16535433070868
 30
0.0
 11
602.7984446245817
 21
-171.6224008450312
 31
0.0
  0
LINE
 10
602.7984446245817
 20
-171.6224008450312
 30
0.0
 11
604.0964226509592
 21
-166.21593327017905
 31
0.0
  0
LINE
 10
604.0964226509592
 20
-166.21593327017905
 30
0.0
 11
606.2241782767902
 21
-161.07907678088222
 31
0.0
  0
LINE
 10
606.2241782767902
 20
-161.07907678088222
 30
0.0
 11
609.1293190969507
 21
-156.33831783215646
 31
0.0
  0
LINE
 10
609.1293190969507
 20
-156.33831783215646
 30
0.0
 11
612.7403109028389
 21
-152.11038964299635
 31
0.0
  0
LINE
 10
612.7403109028389
 20
-152.11038964299635
 30
0.0
 11
616.9682390919991
 21
-148.49939783710818
 31
0.0
  0
LINE
 10
616.9682390919991
 20
-148.49939783710818
 30
0.0
 11
621.7089980407247
 21
-145.5942570169476
 31
0.0
  0
LINE
 10
621.7089980407247
 20
-145.5942570169476
 30
0.0
 11
626.8458545300216
 21
-143.46650139111662
 31
0.0
  0
LINE
 10
626.8458545300216
 20
-143.46650139111662
 30
0.0
 11
632.2523221048738
 21
-142.16852336473923
 31
0.0
  0
LINE
 10
632.2523221048738
 20
-142.16852336473923
 30
0.0
 11
637.7952755905512
 21
-141.73228346456693
 31
0.0
  0
LINE
 10
637.7952755905512
 20
-141.73228346456693
 30
0.0
 11
643.3382290762288
 21
-142.16852336473923
 31
0.0
  0
LINE
 10
643.3382290762288
 20
-142.16852336473923
 30
0.0
 11
648.744696651081
 21
-143.46650139111662
 31
0.0
  0
LINE
 10
648.744696651081
 20
-143.46650139111662
 30
0.0
 11
653.8815531403777
 21
-145.5942570169476
 31
0.0
  0
LINE
 10
653.8815531403777
 20
-145.5942570169476
 30
0.0
 11
658.6223120891035
 21
-148.49939783710818
 31
0.0
  0
LINE
 10
658.6223120891035
 20
-148.49939783710818
 30
0.0
 11
662.8502402782635
 21
-152.11038964299635
 31
0.0
  0
LINE
 10
662.8502402782635
 20
-152.11038964299635
 30
0.0
 11
666.4612320841517
 21
-156.33831783215646
 31
0.0
  0
LINE
 10
666.4612320841517
 20
-156.33831783215646
 30
0.0
 11
669.3663729043122
 21
-161.07907678088222
 31
0.0
  0
LINE
 10
669.3663729043122
 20
-161.07907678088222
 30
0.0
 11
671.4941285301433
 21
-166.21593327017905
 31
0.0
  0
LINE
 10
671.4941285301433
 20
-166.21593327017905
 30
0.0
 11
672.7921065565207
 21
-171.6224008450312
 31
0.0
  0
LINE
 10
672.7921065565207
 20
-171.6224008450312
 30
0.0
 11
673.228346456693
 21
-177.16535433070868
 31
0.0
  0
LINE
 10
68.34799091815248
 20
-427.71500120783185
 30
0.0
 11
64.73699911226429
 21
-423.4870730186717
 31
0.0
  0
LINE
 10
64.73699911226429
 20
-423.4870730186717
 30
0.0
 11
61.831858292103725
 21
-418.746314069946
 31
0.0
  0
LINE
 10
61.831858292103725
 20
-418.746314069946
 30
0.0
 11
59.70410266627273
 21
-413.60945758064923
 31
0.0
  0
LINE
 10
59.70410266627273
 20
-413.60945758064923
 30
0.0
 11
58.40612463989534
 21
-408.202990005797
 31
0.0
  0
LINE
 10
58.40612463989534
 20
-408.202990005797
 30
0.0
 11
57.96988473972306
 21
-402.66003652011955
 31
0.0
  0
LINE
 10
57.96988473972306
 20
-402.66003652011955
 30
0.0
 11
58.40612463989534
 21
-397.1170830344421
 31
0.0
  0
LINE
 10
58.40612463989534
 20
-397.1170830344421
 30
0.0
 11
59.70410266627273
 21
-391.7106154595899
 31
0.0
  0
LINE
 10
59.70410266627273
 20
-391.7106154595899
 30
0.0
 11
61.831858292103725
 21
-386.57375897029306
 31
0.0
  0
LINE
 10
61.831858292103725
 20
-386.57375897029306
 30
0.0
 11
64.73699911226429
 21
-381.83300002156733
 31
0.0
  0
LINE
 10
64.73699911226429
 20
-381.83300002156733
 30
0.0
 11
68.34799091815248
 21
-377.6050718324072
 31
0.0
  0
LINE
 10
68.34799091815248
 20
-377.6050718324072
 30
0.0
 11
72.5759191073126
 21
-373.99408002651904
 31
0.0
  0
LINE
 10
72.5759191073126
 20
-373.99408002651904
 30
0.0
 11
77.31667805603833
 21
-371.0889392063585
 31
0.0
  0
LINE
 10
77.31667805603833
 20
-371.0889392063585
 30
0.0
 11
82.45353454533516
 21
-368.9611835805275
 31
0.0
  0
LINE
 10
82.45353454533516
 20
-368.9611835805275
 30
0.0
 11
87.8600021201873
 21
-367.66320555415007
 31
0.0
  0
LINE
 10
87.8600021201873
 20
-367.66320555415007
 30
0.0
 11
93.40295560586479
 21
-367.2269656539778
 31
0.0
  0
LINE
 10
93.40295560586479
 20
-367.2269656539778
 30
0.0
 11
98.94590909154225
 21
-367.66320555415007
 31
0.0
  0
LINE
 10
98.94590909154225
 20
-367.66320555415007
 30
0.0
 11
104.35237666639442
 21
-368.96118358052746
 31
0.0
  0
LINE
 10
104.35237666639442
 20
-368.96118358052746
 30
0.0
 11
109.48923315569125
 21
-371.0889392063585
 31
0.0
  0
LINE
 10
109.48923315569125
 20
-371.0889392063585
 30
0.0
 11
114.22999210441698
 21
-373.99408002651904
 31
0.0
  0
LINE
 10
114.22999210441698
 20
-373.99408002651904
 30
0.0
 11
118.4579202935771
 21
-377.6050718324072
 31
0.0
  0
LINE
 10
641.3385826771654
 20
-177.16535433070868
 30
0.0
 11
641.1651608845104
 21
-178.26029643676165
 31
0.0
  0
LINE
 10
641.1651608845104
 20
-178.26029643676165
 30
0.0
 11
640.6618712399113
 21
-179.24805798056389
 31
0.0
  0
LINE
 10
640.6618712399113
 20
-179.24805798056389
 30
0.0
 11
639.8779792404064
 21
-180.03194998006873
 31
0.0
  0
LINE
 10
639.8779792404064
 20
-180.03194998006873
 30
0.0
 11
638.8902176966043
 21
-180.5352396246679
 31
0.0
  0
LINE
 10
638.8902176966043
 20
-180.5352396246679
 30
0.0
 11
637.7952755905512
 21
-180.70866141732284
 31
0.0
  0
LINE
 10
637.7952755905512
 20
-180.70866141732284
 30
0.0
 11
636.7003334844983
 21
-180.5352396246679
 31
0.0
  0
LINE
 10
636.7003334844983
 20
-180.5352396246679
 30
0.0
 11
635.7125719406961
 21
-180.03194998006873
 31
0.0
  0
LINE
 10
635.7125719406961
 20
-180.03194998006873
 30
0.0
 11
634.9286799411911
 21
-179.24805798056389
 31
0.0
  0
LINE
 10
634.9286799411911
 20
-179.24805798056389
 30
0.0
 11
634.425390296592
 21
-178.26029643676165
 31
0.0
  0
LINE
 10
634.425390296592
 20
-178.26029643676165
 30
0.0
 11
634.2519685039371
 21
-177.16535433070868
 31
0.0
  0
LINE
 10
634.2519685039371
 20
-177.16535433070868
 30
0.0
 11
634.425390296592
 21
-176.0704122246557
 31
0.0
  0
LINE
 10
634.425390296592
 20
-176.0704122246557
 30
0.0
 11
634.9286799411911
 21
-175.08265068085348
 31
0.0
  0
LINE
 10
634.9286799411911
 20
-175.08265068085348
 30
0.0
 11
635.7125719406961
 21
-174.29875868134863
 31
0.0
  0
LINE
 10
635.7125719406961
 20
-174.29875868134863
 30
0.0
 11
636.7003334844983
 21
-173.79546903674947
 31
0.0
  0
LINE
 10
636.7003334844983
 20
-173.79546903674947
 30
0.0
 11
637.7952755905512
 21
-173.62204724409452
 31
0.0
  0
LINE
 10
637.7952755905512
 20
-173.62204724409452
 30
0.0
 11
638.8902176966043
 21
-173.79546903674947
 31
0.0
  0
LINE
 10
638.8902176966043
 20
-173.79546903674947
 30
0.0
 11
639.8779792404064
 21
-174.29875868134863
 31
0.0
  0
LINE
 10
639.8779792404064
 20
-174.29875868134863
 30
0.0
 11
640.6618712399113
 21
-175.08265068085345
 31
0.0
  0
LINE
 10
640.6618712399113
 20
-175.08265068085345
 30
0.0
 11
641.1651608845104
 21
-176.0704122246557
 31
0.0
  0
LINE
 10
641.1651608845104
 20
-176.0704122246557
 30
0.0
 11
641.3385826771654
 21
-177.16535433070868
 31
0.0
  0
LINE
 10
96.94626269247897
 20
-402.66003652011955
 30
0.0
 11
96.772840899824
 21
-403.7549786261725
 31
0.0
  0
LINE
 10
96.772840899824
 20
-403.7549786261725
 30
0.0
 11
96.26955125522484
 21
-404.74274016997475
 31
0.0
  0
LINE
 10
96.26955125522484
 20
-404.74274016997475
 30
0.0
 11
95.48565925572001
 21
-405.52663216947957
 31
0.0
  0
LINE
 10
95.48565925572001
 20
-405.52663216947957
 30
0.0
 11
94.49789771191776
 21
-406.02992181407876
 31
0.0
  0
LINE
 10
94.49789771191776
 20
-406.02992181407876
 30
0.0
 11
93.40295560586479
 21
-406.2033436067337
 31
0.0
  0
LINE
 10
93.40295560586479
 20
-406.2033436067337
 30
0.0
 11
92.30801349981184
 21
-406.02992181407876
 31
0.0
  0
LINE
 10
92.30801349981184
 20
-406.02992181407876
 30
0.0
 11
91.32025195600957
 21
-405.52663216947957
 31
0.0
  0
LINE
 10
91.32025195600957
 20
-405.52663216947957
 30
0.0
 11
90.53635995650474
 21
-404.74274016997475
 31
0.0
  0
LINE
 10
90.53635995650474
 20
-404.74274016997475
 30
0.0
 11
90.03307031190559
 21
-403.7549786261725
 31
0.0
  0
LINE
 10
90.03307031190559
 20
-403.7549786261725
 30
0.0
 11
89.85964851925061
 21
-402.66003652011955
 31
0.0
  0
LINE
 10
89.85964851925061
 20
-402.66003652011955
 30
0.0
 11
90.03307031190559
 21
-401.5650944140666
 31
0.0
  0
LINE
 10
90.03307031190559
 20
-401.5650944140666
 30
0.0
 11
90.53635995650474
 21
-400.5773328702643
 31
0.0
  0
LINE
 10
90.53635995650474
 20
-400.5773328702643
 30
0.0
 11
91.32025195600957
 21
-399.7934408707595
 31
0.0
  0
LINE
 10
91.32025195600957
 20
-399.7934408707595
 30
0.0
 11
92.30801349981184
 21
-399.29015122616033
 31
0.0
  0
LINE
 10
92.30801349981184
 20
-399.29015122616033
 30
0.0
 11
93.40295560586479
 21
-399.1167294335054
 31
0.0
  0
LINE
 10
93.40295560586479
 20
-399.1167294335054
 30
0.0
 11
94.49789771191776
 21
-399.29015122616033
 31
0.0
  0
LINE
 10
94.49789771191776
 20
-399.29015122616033
 30
0.0
 11
95.48565925572001
 21
-399.7934408707595
 31
0.0
  0
LINE
 10
95.48565925572001
 20
-399.7934408707595
 30
0.0
 11
96.26955125522484
 21
-400.5773328702643
 31
0.0
  0
LINE
 10
96.26955125522484
 20
-400.5773328702643
 30
0.0
 11
96.772840899824
 21
-401.5650944140666
 31
0.0
  0
LINE
 10
96.772840899824
 20
-401.5650944140666
 30
0.0
 11
96.94626269247897
 21
-402.66003652011955
 31
0.0
  0
ENDSEC
  0
EOF
