  0
SECTION
  2
HEADER
  9
$ACADVER
  1
AC1009
  9
$INSBASE
 10
0
 20
0
 30
0
  9
$EXTMIN
 10
0
 20
0
  9
$EXTMAX
 10
336.40000000000003
 20
237.80000000000001
  9
$LIMMIN
 10
0
 20
0
  9
$LIMMAX
 10
336.40000000000003
 20
237.80000000000001
  9
$LTSCALE
 40
0.1
  0
ENDSEC
  0
SECTION
  2
TABLES
  0
TABLE
  2
LTYPE
 70
9
  0
LTYPE
  2
CONTINUOUS
 70
64
  3
SolidLine
 72
65
 73
0
 40
0.0
  0
LTYPE
  2
DOT
 70
64
  3
--  --  --  --  --  --  --  --     
 72
65
 73
2
 40
3.0
 49
1.0
 49
-2.0
  0
LTYPE
  2
DASHED
 70
64
  3
----    ----    ----    ----    
 72
65
 73
2
 40
5.0
 49
2.0
 49
-3.0
  0
LTYPE
  2
CENTER
 70
64
  3
----- - ----- - ----- - ----- - 
 72
65
 73
4
 40
13.0
 49
6.0
 49
-3.0
 49
1.0
 49
-3.0
  0
LTYPE
  2
PHANTOM
 70
64
  3
--- - - --- - - --- - - --- - -
 72
65
 73
6
 40
16.0
 49
5.0
 49
-3.0
 49
1.0
 49
-3.0
 49
1.0
 49
-3.0
  0
ENDTAB
  0
TABLE
  2
STYLE
  5
3
100
AcDbSymbolTable
 70
1
  0
STYLE
  5
10
100
AcDbSymbolTableRecord
100
AcDbTextStyleTableRecord
  2
STANDARD
 70
0
 40
0.0
 41
1.0
 50
0.0
 71
0
 42
0.2
  3
txt
  4
bigfont.shx
  0
STYLE
  5
26
100
AcDbSymbolTableRecord
100
AcDbTextStyleTableRecord
  2
TATEGAKI
 70
68
 40
0.0
 41
1.0
 50
0.0
 71
0
 42
1.0
  3
txt
  4
bigfont.shx
  0
ENDTAB
  0
TABLE
  2
LAYER
 70
2
  0
LAYER
  2
_0-0_
 70
64
 62
7
  6
CONTINUOUS
  0
LAYER
  2
ADD_LINE
 70
64
 62
7
  6
CONTINUOUS
  0
ENDTAB
  0
ENDSEC
  0
SECTION
  2
ENTITIES
  0
LINE
 10
65.0
 20
-35.0
 30
0.0
 11
65.0
 21
-235.0
 31
0.0
  0
LINE
 10
65.0
 20
-35.0
 30
0.0
 11
265.0
 21
-35.0
 31
0.0
  0
LINE
 10
265.0
 20
-35.0
 30
0.0
 11
265.0
 21
-235.0
 31
0.0
  0
LINE
 10
65.0
 20
-235.0
 30
0.0
 11
265.0
 21
-235.0
 31
0.0
  0
LINE
 10
240.0
 20
-50.0
 30
0.0
 11
239.97224302180007
 21
-52.35597648336101
 31
0.0
  0
LINE
 10
239.97224302180007
 20
-52.35597648336101
 30
0.0
 11
239.888987496197
 21
-54.71064507096427
 31
0.0
  0
LINE
 10
239.888987496197
 20
-54.71064507096427
 30
0.0
 11
239.750279641627
 21
-57.06269859311667
 31
0.0
  0
LINE
 10
239.750279641627
 20
-57.06269859311667
 30
0.0
 11
239.556196460308
 21
-59.41083133185143
 31
0.0
  0
LINE
 10
239.556196460308
 20
-59.41083133185143
 30
0.0
 11
239.30684569549263
 21
-61.75373974578376
 31
0.0
  0
LINE
 10
239.30684569549263
 20
-61.75373974578376
 30
0.0
 11
239.00236577165575
 21
-64.09012319375827
 31
0.0
  0
LINE
 10
239.00236577165575
 20
-64.09012319375827
 30
0.0
 11
238.64292571764955
 21
-66.4186846568863
 31
0.0
  0
LINE
 10
238.64292571764955
 20
-66.4186846568863
 30
0.0
 11
238.22872507286888
 21
-68.73813145857247
 31
0.0
  0
LINE
 10
238.22872507286888
 20
-68.73813145857247
 30
0.0
 11
237.75999377647906
 21
-71.04717598213057
 31
0.0
  0
LINE
 10
237.75999377647906
 20
-71.04717598213057
 30
0.0
 11
237.23699203976764
 21
-73.34453638559054
 31
0.0
  0
LINE
 10
237.23699203976764
 20
-73.34453638559054
 30
0.0
 11
236.66001020169074
 21
-75.62893731329967
 31
0.0
  0
LINE
 10
236.66001020169074
 20
-75.62893731329967
 30
0.0
 11
236.0293685676943
 21
-77.89911060392294
 31
0.0
  0
LINE
 10
236.0293685676943
 20
-77.89911060392294
 30
0.0
 11
235.34541723190011
 21
-80.15379599444957
 31
0.0
  0
LINE
 10
235.34541723190011
 20
-80.15379599444957
 30
0.0
 11
234.60853588275452
 21
-82.39174181981494
 31
0.0
  0
LINE
 10
234.60853588275452
 20
-82.39174181981494
 30
0.0
 11
233.81913359224842
 21
-84.6117057077493
 31
0.0
  0
LINE
 10
233.81913359224842
 20
-84.6117057077493
 30
0.0
 11
232.97764858882516
 21
-86.8124552684678
 31
0.0
  0
LINE
 10
232.97764858882516
 20
-86.8124552684678
 30
0.0
 11
232.0845480141026
 21
-88.99276877881883
 31
0.0
  0
LINE
 10
232.0845480141026
 20
-88.99276877881883
 30
0.0
 11
231.14032766354453
 21
-91.15143586051087
 31
0.0
  0
LINE
 10
231.14032766354453
 20
-91.15143586051087
 30
0.0
 11
230.14551171122457
 21
-93.2872581520414
 31
0.0
  0
LINE
 10
230.14551171122457
 20
-93.2872581520414
 30
0.0
 11
229.10065241883677
 21
-95.39904997395467
 31
0.0
  0
LINE
 10
229.10065241883677
 20
-95.39904997395467
 30
0.0
 11
228.0063298291132
 21
-97.48563898705945
 31
0.0
  0
LINE
 10
228.0063298291132
 20
-97.48563898705945
 30
0.0
 11
226.8631514438191
 21
-99.54586684324076
 31
0.0
  0
LINE
 10
226.8631514438191
 20
-99.54586684324076
 30
0.0
 11
225.67175188650498
 21
-101.57858982850476
 31
0.0
  0
LINE
 10
225.67175188650498
 20
-101.57858982850476
 30
0.0
 11
224.4327925502015
 21
-103.58267949789968
 31
0.0
  0
LINE
 10
224.4327925502015
 20
-103.58267949789968
 30
0.0
 11
223.14696123025453
 21
-105.55702330196021
 31
0.0
  0
LINE
 10
223.14696123025453
 20
-105.55702330196021
 30
0.0
 11
221.81497174250234
 21
-107.50052520432786
 31
0.0
  0
LINE
 10
221.81497174250234
 20
-107.50052520432786
 30
0.0
 11
220.43756352700845
 21
-109.41210629020387
 31
0.0
  0
LINE
 10
220.43756352700845
 20
-109.41210629020387
 30
0.0
 11
219.01550123756903
 21
-111.29070536529764
 31
0.0
  0
LINE
 10
219.01550123756903
 20
-111.29070536529764
 30
0.0
 11
217.54957431722343
 21
-113.13527954493779
 31
0.0
  0
LINE
 10
217.54957431722343
 20
-113.13527954493779
 30
0.0
 11
216.0405965600031
 21
-114.94480483301837
 31
0.0
  0
LINE
 10
216.0405965600031
 20
-114.94480483301837
 30
0.0
 11
214.48940565916223
 21
-116.71827669045996
 31
0.0
  0
LINE
 10
214.48940565916223
 20
-116.71827669045996
 30
0.0
 11
212.89686274214114
 21
-118.45471059286886
 31
0.0
  0
LINE
 10
212.89686274214114
 20
-118.45471059286886
 30
0.0
 11
211.26385189252053
 21
-120.15314257708557
 31
0.0
  0
LINE
 10
211.26385189252053
 20
-120.15314257708557
 30
0.0
 11
209.59127965923142
 21
-121.81262977631889
 31
0.0
  0
LINE
 10
209.59127965923142
 20
-121.81262977631889
 30
0.0
 11
207.88007455329418
 21
-123.43225094356856
 31
0.0
  0
LINE
 10
207.88007455329418
 20
-123.43225094356856
 30
0.0
 11
206.13118653236518
 21
-125.01110696304596
 31
0.0
  0
LINE
 10
206.13118653236518
 20
-125.01110696304596
 30
0.0
 11
204.3455864733779
 21
-126.54832134930881
 31
0.0
  0
LINE
 10
204.3455864733779
 20
-126.54832134930881
 30
0.0
 11
202.5242656335705
 21
-128.04304073383298
 31
0.0
  0
LINE
 10
202.5242656335705
 20
-128.04304073383298
 30
0.0
 11
200.66823510019998
 21
-129.49443533875103
 31
0.0
  0
LINE
 10
200.66823510019998
 20
-129.49443533875103
 30
0.0
 11
198.77852522924732
 21
-130.90169943749476
 31
0.0
  0
LINE
 10
198.77852522924732
 20
-130.90169943749476
 30
0.0
 11
196.8561850734264
 21
-132.264051802086
 31
0.0
  0
LINE
 10
196.8561850734264
 20
-132.264051802086
 30
0.0
 11
194.90228179981318
 21
-133.580736136827
 31
0.0
  0
LINE
 10
194.90228179981318
 20
-133.580736136827
 30
0.0
 11
192.91790009741905
 21
-134.85102149815037
 31
0.0
  0
LINE
 10
192.91790009741905
 20
-134.85102149815037
 30
0.0
 11
190.90414157503713
 21
-136.07420270039438
 31
0.0
  0
LINE
 10
190.90414157503713
 20
-136.07420270039438
 30
0.0
 11
188.8621241496955
 21
-137.2496007072797
 31
0.0
  0
LINE
 10
188.8621241496955
 20
-137.2496007072797
 30
0.0
 11
186.79298142605734
 21
-138.37656300886934
 31
0.0
  0
LINE
 10
186.79298142605734
 20
-138.37656300886934
 30
0.0
 11
184.6978620671121
 21
-139.4544639838025
 31
0.0
  0
LINE
 10
184.6978620671121
 20
-139.4544639838025
 30
0.0
 11
182.57792915650725
 21
-140.48270524660194
 31
0.0
  0
LINE
 10
182.57792915650725
 20
-140.48270524660194
 30
0.0
 11
180.4343595528745
 21
-141.46071597986136
 31
0.0
  0
LINE
 10
180.4343595528745
 20
-141.46071597986136
 30
0.0
 11
178.268343236509
 21
-142.3879532511287
 31
0.0
  0
LINE
 10
178.268343236509
 20
-142.3879532511287
 30
0.0
 11
176.08108264876418
 21
-143.2639023143094
 31
0.0
  0
LINE
 10
176.08108264876418
 20
-143.2639023143094
 30
0.0
 11
173.87379202452914
 21
-144.08807689542255
 31
0.0
  0
LINE
 10
173.87379202452914
 20
-144.08807689542255
 30
0.0
 11
171.6476967181586
 21
-144.86001946255044
 31
0.0
  0
LINE
 10
171.6476967181586
 20
-144.86001946255044
 30
0.0
 11
169.4040325232304
 21
-145.57930147983302
 31
0.0
  0
LINE
 10
169.4040325232304
 20
-145.57930147983302
 30
0.0
 11
167.14404498650742
 21
-146.24552364536473
 31
0.0
  0
LINE
 10
167.14404498650742
 20
-146.24552364536473
 30
0.0
 11
164.8689887164855
 21
-146.85831611286312
 31
0.0
  0
LINE
 10
164.8689887164855
 20
-146.85831611286312
 30
0.0
 11
162.58012668691038
 21
-147.41733869698493
 31
0.0
  0
LINE
 10
162.58012668691038
 20
-147.41733869698493
 30
0.0
 11
160.27872953565122
 21
-147.92228106217658
 31
0.0
  0
LINE
 10
160.27872953565122
 20
-147.92228106217658
 30
0.0
 11
157.96607485931924
 21
-148.37286289495358
 31
0.0
  0
LINE
 10
157.96607485931924
 20
-148.37286289495358
 30
0.0
 11
155.6434465040231
 21
-148.76883405951378
 31
0.0
  0
LINE
 10
155.6434465040231
 20
-148.76883405951378
 30
0.0
 11
153.31213385265522
 21
-149.10997473659748
 31
0.0
  0
LINE
 10
153.31213385265522
 20
-149.10997473659748
 30
0.0
 11
150.97343110910452
 21
-149.39609554551797
 31
0.0
  0
LINE
 10
150.97343110910452
 20
-149.39609554551797
 30
0.0
 11
148.62863657979233
 21
-149.62703764929412
 31
0.0
  0
LINE
 10
148.62863657979233
 20
-149.62703764929412
 30
0.0
 11
146.27905195293135
 21
-149.80267284282715
 31
0.0
  0
LINE
 10
146.27905195293135
 20
-149.80267284282715
 30
0.0
 11
143.92598157590686
 21
-149.9229036240723
 31
0.0
  0
LINE
 10
143.92598157590686
 20
-149.9229036240723
 30
0.0
 11
141.57073173118206
 21
-149.98766324816606
 31
0.0
  0
LINE
 10
141.57073173118206
 20
-149.98766324816606
 30
0.0
 11
139.2146099111289
 21
-149.99691576447896
 31
0.0
  0
LINE
 10
139.2146099111289
 20
-149.99691576447896
 30
0.0
 11
136.85892409218718
 21
-149.95065603657315
 31
0.0
  0
LINE
 10
136.85892409218718
 20
-149.95065603657315
 30
0.0
 11
134.5049820087554
 21
-149.8489097450538
 31
0.0
  0
LINE
 10
134.5049820087554
 20
-149.8489097450538
 30
0.0
 11
132.15409042721552
 21
-149.6917333733128
 31
0.0
  0
LINE
 10
132.15409042721552
 20
-149.6917333733128
 30
0.0
 11
129.807554420495
 21
-149.47921417617266
 31
0.0
  0
LINE
 10
129.807554420495
 20
-149.47921417617266
 30
0.0
 11
127.46667664356957
 21
-149.21147013144778
 31
0.0
  0
LINE
 10
127.46667664356957
 20
-149.21147013144778
 30
0.0
 11
125.1327566103077
 21
-148.88864987445046
 31
0.0
  0
LINE
 10
125.1327566103077
 20
-148.88864987445046
 30
0.0
 11
122.80708997205903
 21
-148.51093261547737
 31
0.0
  0
LINE
 10
122.80708997205903
 20
-148.51093261547737
 30
0.0
 11
120.4909677983872
 21
-148.07852804032305
 31
0.0
  0
LINE
 10
120.4909677983872
 20
-148.07852804032305
 30
0.0
 11
118.18567586034574
 21
-147.59167619387475
 31
0.0
  0
LINE
 10
118.18567586034574
 20
-147.59167619387475
 30
0.0
 11
115.89249391669613
 21
-147.05064734685425
 31
0.0
  0
LINE
 10
115.89249391669613
 20
-147.05064734685425
 30
0.0
 11
113.61269500346269
 21
-146.4557418457798
 31
0.0
  0
LINE
 10
113.61269500346269
 20
-146.4557418457798
 30
0.0
 11
111.34754472722017
 21
-145.8072899462319
 31
0.0
  0
LINE
 10
111.34754472722017
 20
-145.8072899462319
 30
0.0
 11
109.09830056250527
 21
-145.10565162951536
 31
0.0
  0
LINE
 10
109.09830056250527
 20
-145.10565162951536
 30
0.0
 11
106.86621115374288
 21
-144.35121640281935
 31
0.0
  0
LINE
 10
106.86621115374288
 20
-144.35121640281935
 30
0.0
 11
104.6525156220743
 21
-143.54440308298672
 31
0.0
  0
LINE
 10
104.6525156220743
 20
-143.54440308298672
 30
0.0
 11
102.45844287747167
 21
-142.68565956401207
 31
0.0
  0
LINE
 10
102.45844287747167
 20
-142.68565956401207
 30
0.0
 11
100.28521093652196
 21
-141.77546256839813
 31
0.0
  0
LINE
 10
100.28521093652196
 20
-141.77546256839813
 30
0.0
 11
98.13402624625718
 21
-140.81431738250814
 31
0.0
  0
LINE
 10
98.13402624625718
 20
-140.81431738250814
 30
0.0
 11
96.00608301440849
 21
-139.80275757606157
 31
0.0
  0
LINE
 10
96.00608301440849
 20
-139.80275757606157
 30
0.0
 11
93.90256254645377
 21
-138.74134470592833
 31
0.0
  0
LINE
 10
93.90256254645377
 20
-138.74134470592833
 30
0.0
 11
91.82463258982845
 21
-137.63066800438634
 31
0.0
  0
LINE
 10
91.82463258982845
 20
-137.63066800438634
 30
0.0
 11
89.77344668566275
 21
-136.47134405201552
 31
0.0
  0
LINE
 10
89.77344668566275
 20
-136.47134405201552
 30
0.0
 11
87.75014352840509
 21
-135.2640164354092
 31
0.0
  0
LINE
 10
87.75014352840509
 20
-135.2640164354092
 30
0.0
 11
85.75584633368814
 21
-134.0093553898942
 31
0.0
  0
LINE
 10
85.75584633368814
 20
-134.0093553898942
 30
0.0
 11
83.79166221478692
 21
-132.70805742745617
 31
0.0
  0
LINE
 10
83.79166221478692
 20
-132.70805742745617
 30
0.0
 11
81.85868156801695
 21
-131.3608449500787
 31
0.0
  0
LINE
 10
81.85868156801695
 20
-131.3608449500787
 30
0.0
 11
79.95797746741161
 21
-129.96846584870906
 31
0.0
  0
LINE
 10
79.95797746741161
 20
-129.96846584870906
 30
0.0
 11
78.09060506901659
 21
-128.5316930880745
 31
0.0
  0
LINE
 10
78.09060506901659
 20
-128.5316930880745
 30
0.0
 11
76.257601025131
 21
-127.05132427757889
 31
0.0
  0
LINE
 10
76.257601025131
 20
-127.05132427757889
 30
0.0
 11
74.45998290882062
 21
-125.52818122851836
 31
0.0
  0
LINE
 10
74.45998290882062
 20
-125.52818122851836
 30
0.0
 11
72.69874864902266
 21
-123.96310949786096
 31
0.0
  0
LINE
 10
72.69874864902266
 20
-123.96310949786096
 30
0.0
 11
70.97487597655628
 21
-122.35697791884493
 31
0.0
  0
LINE
 10
70.97487597655628
 20
-122.35697791884493
 30
0.0
 11
69.28932188134526
 21
-120.71067811865476
 31
0.0
  0
LINE
 10
220.0
 20
-50.0
 30
0.0
 11
219.97779441744004
 21
-51.88478118668881
 31
0.0
  0
LINE
 10
219.97779441744004
 20
-51.88478118668881
 30
0.0
 11
219.9111899969576
 21
-53.76851605677141
 31
0.0
  0
LINE
 10
219.9111899969576
 20
-53.76851605677141
 30
0.0
 11
219.8002237133016
 21
-55.650158874493336
 31
0.0
  0
LINE
 10
219.8002237133016
 20
-55.650158874493336
 30
0.0
 11
219.6449571682464
 21
-57.52866506548114
 31
0.0
  0
LINE
 10
219.6449571682464
 20
-57.52866506548114
 30
0.0
 11
219.4454765563941
 21
-59.40299179662701
 31
0.0
  0
LINE
 10
219.4454765563941
 20
-59.40299179662701
 30
0.0
 11
219.2018926173246
 21
-61.272098555006615
 31
0.0
  0
LINE
 10
219.2018926173246
 20
-61.272098555006615
 30
0.0
 11
218.91434057411965
 21
-63.134947725509036
 31
0.0
  0
LINE
 10
218.91434057411965
 20
-63.134947725509036
 30
0.0
 11
218.5829800582951
 21
-64.99050516685797
 31
0.0
  0
LINE
 10
218.5829800582951
 20
-64.99050516685797
 30
0.0
 11
218.20799502118325
 21
-66.83774078570445
 31
0.0
  0
LINE
 10
218.20799502118325
 20
-66.83774078570445
 30
0.0
 11
217.7895936318141
 21
-68.67562910847244
 31
0.0
  0
LINE
 10
217.7895936318141
 20
-68.67562910847244
 30
0.0
 11
217.32800816135259
 21
-70.50314985063973
 31
0.0
  0
LINE
 10
217.32800816135259
 20
-70.50314985063973
 30
0.0
 11
216.82349485415546
 21
-72.31928848313835
 31
0.0
  0
LINE
 10
216.82349485415546
 20
-72.31928848313835
 30
0.0
 11
216.27633378552008
 21
-74.12303679555966
 31
0.0
  0
LINE
 10
216.27633378552008
 20
-74.12303679555966
 30
0.0
 11
215.68682870620364
 21
-75.91339345585195
 31
0.0
  0
LINE
 10
215.68682870620364
 20
-75.91339345585195
 30
0.0
 11
215.0553068737987
 21
-77.68936456619943
 31
0.0
  0
LINE
 10
215.0553068737987
 20
-77.68936456619943
 30
0.0
 11
214.38211887106013
 21
-79.44996421477424
 31
0.0
  0
LINE
 10
214.38211887106013
 20
-79.44996421477424
 30
0.0
 11
213.6676384112821
 21
-81.19421502305507
 31
0.0
  0
LINE
 10
213.6676384112821
 20
-81.19421502305507
 30
0.0
 11
212.91226213083564
 21
-82.9211486884087
 31
0.0
  0
LINE
 10
212.91226213083564
 20
-82.9211486884087
 30
0.0
 11
212.11640936897965
 21
-84.62980652163311
 31
0.0
  0
LINE
 10
212.11640936897965
 20
-84.62980652163311
 30
0.0
 11
211.28052193506943
 21
-86.31923997916374
 31
0.0
  0
LINE
 10
211.28052193506943
 20
-86.31923997916374
 30
0.0
 11
210.40506386329054
 21
-87.98851118964757
 31
0.0
  0
LINE
 10
210.40506386329054
 20
-87.98851118964757
 30
0.0
 11
209.4905211550553
 21
-89.6366934745926
 31
0.0
  0
LINE
 10
209.4905211550553
 20
-89.6366934745926
 30
0.0
 11
208.53740150920396
 21
-91.26287186280379
 31
0.0
  0
LINE
 10
208.53740150920396
 20
-91.26287186280379
 30
0.0
 11
207.5462340401612
 21
-92.86614359831972
 31
0.0
  0
LINE
 10
207.5462340401612
 20
-92.86614359831972
 30
0.0
 11
206.51756898420362
 21
-94.44561864156817
 31
0.0
  0
LINE
 10
206.51756898420362
 20
-94.44561864156817
 30
0.0
 11
205.45197739400186
 21
-96.00042016346228
 31
0.0
  0
LINE
 10
205.45197739400186
 20
-96.00042016346228
 30
0.0
 11
204.35005082160677
 21
-97.52968503216309
 31
0.0
  0
LINE
 10
204.35005082160677
 20
-97.52968503216309
 30
0.0
 11
203.21240099005524
 21
-99.03256429223812
 31
0.0
  0
LINE
 10
203.21240099005524
 20
-99.03256429223812
 30
0.0
 11
202.03965945377874
 21
-100.50822363595023
 31
0.0
  0
LINE
 10
202.03965945377874
 20
-100.50822363595023
 30
0.0
 11
200.83247724800248
 21
-101.9558438664147
 31
0.0
  0
LINE
 10
200.83247724800248
 20
-101.9558438664147
 30
0.0
 11
199.59152452732977
 21
-103.37462135236797
 31
0.0
  0
LINE
 10
199.59152452732977
 20
-103.37462135236797
 30
0.0
 11
198.31749019371293
 21
-104.76376847429509
 31
0.0
  0
LINE
 10
198.31749019371293
 20
-104.76376847429509
 30
0.0
 11
197.01108151401644
 21
-106.12251406166845
 31
0.0
  0
LINE
 10
197.01108151401644
 20
-106.12251406166845
 30
0.0
 11
195.67302372738516
 21
-107.45010382105511
 31
0.0
  0
LINE
 10
195.67302372738516
 20
-107.45010382105511
 30
0.0
 11
194.30405964263534
 21
-108.74580075485484
 31
0.0
  0
LINE
 10
194.30405964263534
 20
-108.74580075485484
 30
0.0
 11
192.90494922589215
 21
-110.00888557043677
 31
0.0
  0
LINE
 10
192.90494922589215
 20
-110.00888557043677
 30
0.0
 11
191.4764691787023
 21
-111.23865707944705
 31
0.0
  0
LINE
 10
191.4764691787023
 20
-111.23865707944705
 30
0.0
 11
190.0194125068564
 21
-112.43443258706637
 31
0.0
  0
LINE
 10
190.0194125068564
 20
-112.43443258706637
 30
0.0
 11
188.53458808015998
 21
-113.59554827100081
 31
0.0
  0
LINE
 10
188.53458808015998
 20
-113.59554827100081
 30
0.0
 11
187.02282018339787
 21
-114.7213595499958
 31
0.0
  0
LINE
 10
187.02282018339787
 20
-114.7213595499958
 30
0.0
 11
185.4849480587411
 21
-115.81124144166878
 31
0.0
  0
LINE
 10
185.4849480587411
 20
-115.81124144166878
 30
0.0
 11
183.92182543985055
 21
-116.86458890946162
 31
0.0
  0
LINE
 10
183.92182543985055
 20
-116.86458890946162
 30
0.0
 11
182.33432007793525
 21
-117.88081719852029
 31
0.0
  0
LINE
 10
182.33432007793525
 20
-117.88081719852029
 30
0.0
 11
180.7233132600297
 21
-118.8593621603155
 31
0.0
  0
LINE
 10
180.7233132600297
 20
-118.8593621603155
 30
0.0
 11
179.0896993197564
 21
-119.79968056582378
 31
0.0
  0
LINE
 10
179.0896993197564
 20
-119.79968056582378
 30
0.0
 11
177.43438514084588
 21
-120.70125040709547
 31
0.0
  0
LINE
 10
177.43438514084588
 20
-120.70125040709547
 30
0.0
 11
175.7582896536897
 21
-121.563571187042
 31
0.0
  0
LINE
 10
175.7582896536897
 20
-121.563571187042
 30
0.0
 11
174.0623433252058
 21
-122.38616419728157
 31
0.0
  0
LINE
 10
174.0623433252058
 20
-122.38616419728157
 30
0.0
 11
172.3474876422996
 21
-123.16857278388909
 31
0.0
  0
LINE
 10
172.3474876422996
 20
-123.16857278388909
 30
0.0
 11
170.6146745892072
 21
-123.91036260090294
 31
0.0
  0
LINE
 10
170.6146745892072
 20
-123.91036260090294
 30
0.0
 11
168.86486611901134
 21
-124.61112185144754
 31
0.0
  0
LINE
 10
168.86486611901134
 20
-124.61112185144754
 30
0.0
 11
167.09903361962333
 21
-125.27046151633803
 31
0.0
  0
LINE
 10
167.09903361962333
 20
-125.27046151633803
 30
0.0
 11
165.3181573745269
 21
-125.88801557004037
 31
0.0
  0
LINE
 10
165.3181573745269
 20
-125.88801557004037
 30
0.0
 11
163.5232260185843
 21
-126.46344118386641
 31
0.0
  0
LINE
 10
163.5232260185843
 20
-126.46344118386641
 30
0.0
 11
161.71523598920595
 21
-126.99641891629179
 31
0.0
  0
LINE
 10
161.71523598920595
 20
-126.99641891629179
 30
0.0
 11
159.8951909731884
 21
-127.48665289029049
 31
0.0
  0
LINE
 10
159.8951909731884
 20
-127.48665289029049
 30
0.0
 11
158.0641013495283
 21
-127.93387095758794
 31
0.0
  0
LINE
 10
158.0641013495283
 20
-127.93387095758794
 30
0.0
 11
156.22298362852098
 21
-128.33782484974125
 31
0.0
  0
LINE
 10
156.22298362852098
 20
-128.33782484974125
 30
0.0
 11
154.3728598874554
 21
-128.69829031596288
 31
0.0
  0
LINE
 10
154.3728598874554
 20
-128.69829031596288
 30
0.0
 11
152.51475720321847
 21
-129.01506724761103
 31
0.0
  0
LINE
 10
152.51475720321847
 20
-129.01506724761103
 30
0.0
 11
150.64970708212417
 21
-129.28797978927798
 31
0.0
  0
LINE
 10
150.64970708212417
 20
-129.28797978927798
 30
0.0
 11
148.77874488728364
 21
-129.51687643641438
 31
0.0
  0
LINE
 10
148.77874488728364
 20
-129.51687643641438
 30
0.0
 11
146.90290926383386
 21
-129.7016301194353
 31
0.0
  0
LINE
 10
146.90290926383386
 20
-129.7016301194353
 30
0.0
 11
145.02324156234508
 21
-129.84213827426174
 31
0.0
  0
LINE
 10
145.02324156234508
 20
-129.84213827426174
 30
0.0
 11
143.1407852607255
 21
-129.93832289925783
 31
0.0
  0
LINE
 10
143.1407852607255
 20
-129.93832289925783
 30
0.0
 11
141.25658538494565
 21
-129.99013059853286
 31
0.0
  0
LINE
 10
141.25658538494565
 20
-129.99013059853286
 30
0.0
 11
139.3716879289031
 21
-129.99753261158315
 31
0.0
  0
LINE
 10
139.3716879289031
 20
-129.99753261158315
 30
0.0
 11
137.48713927374973
 21
-129.96052482925853
 31
0.0
  0
LINE
 10
137.48713927374973
 20
-129.96052482925853
 30
0.0
 11
135.60398560700435
 21
-129.87912779604304
 31
0.0
  0
LINE
 10
135.60398560700435
 20
-129.87912779604304
 30
0.0
 11
133.7232723417724
 21
-129.75338669865022
 31
0.0
  0
LINE
 10
133.7232723417724
 20
-129.75338669865022
 30
0.0
 11
131.846043536396
 21
-129.58337134093813
 31
0.0
  0
LINE
 10
131.846043536396
 20
-129.58337134093813
 30
0.0
 11
129.97334131485565
 21
-129.3691761051582
 31
0.0
  0
LINE
 10
129.97334131485565
 20
-129.3691761051582
 30
0.0
 11
128.10620528824617
 21
-129.11091989956037
 31
0.0
  0
LINE
 10
128.10620528824617
 20
-129.11091989956037
 30
0.0
 11
126.24567197764723
 21
-128.8087460923819
 31
0.0
  0
LINE
 10
126.24567197764723
 20
-128.8087460923819
 30
0.0
 11
124.39277423870976
 21
-128.46282243225846
 31
0.0
  0
LINE
 10
124.39277423870976
 20
-128.46282243225846
 30
0.0
 11
122.5485406882766
 21
-128.0733409550998
 31
0.0
  0
LINE
 10
122.5485406882766
 20
-128.0733409550998
 30
0.0
 11
120.7139951333569
 21
-127.6405178774834
 31
0.0
  0
LINE
 10
120.7139951333569
 20
-127.6405178774834
 30
0.0
 11
118.89015600277015
 21
-127.16459347662385
 31
0.0
  0
LINE
 10
118.89015600277015
 20
-127.16459347662385
 30
0.0
 11
117.07803578177612
 21
-126.64583195698553
 31
0.0
  0
LINE
 10
117.07803578177612
 20
-126.64583195698553
 30
0.0
 11
115.27864045000422
 21
-126.08452130361229
 31
0.0
  0
LINE
 10
115.27864045000422
 20
-126.08452130361229
 30
0.0
 11
113.4929689229943
 21
-125.48097312225548
 31
0.0
  0
LINE
 10
113.4929689229943
 20
-125.48097312225548
 30
0.0
 11
111.72201249765943
 21
-124.83552246638939
 31
0.0
  0
LINE
 10
111.72201249765943
 20
-124.83552246638939
 30
0.0
 11
109.96675430197735
 21
-124.14852765120966
 31
0.0
  0
LINE
 10
109.96675430197735
 20
-124.14852765120966
 30
0.0
 11
108.22816874921756
 21
-123.4203700547185
 31
0.0
  0
LINE
 10
108.22816874921756
 20
-123.4203700547185
 30
0.0
 11
106.50722099700573
 21
-122.6514539060065
 31
0.0
  0
LINE
 10
106.50722099700573
 20
-122.6514539060065
 30
0.0
 11
104.80486641152679
 21
-121.84220606084925
 31
0.0
  0
LINE
 10
104.80486641152679
 20
-121.84220606084925
 30
0.0
 11
103.12205003716302
 21
-120.99307576474266
 31
0.0
  0
LINE
 10
103.12205003716302
 20
-120.99307576474266
 30
0.0
 11
101.45970607186277
 21
-120.10453440350908
 31
0.0
  0
LINE
 10
101.45970607186277
 20
-120.10453440350908
 30
0.0
 11
99.8187573485302
 21
-119.17707524161241
 31
0.0
  0
LINE
 10
99.8187573485302
 20
-119.17707524161241
 30
0.0
 11
98.20011482272406
 21
-118.21121314832736
 31
0.0
  0
LINE
 10
98.20011482272406
 20
-118.21121314832736
 30
0.0
 11
96.60467706695052
 21
-117.20748431191537
 31
0.0
  0
LINE
 10
96.60467706695052
 20
-117.20748431191537
 30
0.0
 11
95.03332977182954
 21
-116.16644594196494
 31
0.0
  0
LINE
 10
95.03332977182954
 20
-116.16644594196494
 30
0.0
 11
93.48694525441356
 21
-115.08867596006296
 31
0.0
  0
LINE
 10
93.48694525441356
 20
-115.08867596006296
 30
0.0
 11
91.96638197392929
 21
-113.97477267896724
 31
0.0
  0
LINE
 10
91.96638197392929
 20
-113.97477267896724
 30
0.0
 11
90.47248405521327
 21
-112.82535447045959
 31
0.0
  0
LINE
 10
90.47248405521327
 20
-112.82535447045959
 30
0.0
 11
89.00608082010478
 21
-111.64105942206311
 31
0.0
  0
LINE
 10
89.00608082010478
 20
-111.64105942206311
 30
0.0
 11
87.5679863270565
 21
-110.42254498281468
 31
0.0
  0
LINE
 10
87.5679863270565
 20
-110.42254498281468
 30
0.0
 11
86.15899891921813
 21
-109.17048759828876
 31
0.0
  0
LINE
 10
86.15899891921813
 20
-109.17048759828876
 30
0.0
 11
84.77990078124503
 21
-107.88558233507595
 31
0.0
  0
LINE
 10
84.77990078124503
 20
-107.88558233507595
 30
0.0
 11
83.4314575050762
 21
-106.5685424949238
 31
0.0
  0
LINE
 10
220.0
 20
-50.0
 30
0.0
 11
220.1231165940486
 21
-48.43565534959769
 31
0.0
  0
LINE
 10
220.1231165940486
 20
-48.43565534959769
 30
0.0
 11
220.48943483704846
 21
-46.90983005625053
 31
0.0
  0
LINE
 10
220.48943483704846
 20
-46.90983005625053
 30
0.0
 11
221.08993475811633
 21
-45.46009500260453
 31
0.0
  0
LINE
 10
221.08993475811633
 20
-45.46009500260453
 30
0.0
 11
221.9098300562505
 21
-44.122147477075266
 31
0.0
  0
LINE
 10
221.9098300562505
 20
-44.122147477075266
 30
0.0
 11
222.92893218813452
 21
-42.928932188134524
 31
0.0
  0
LINE
 10
222.92893218813452
 20
-42.928932188134524
 30
0.0
 11
224.12214747707526
 21
-41.90983005625053
 31
0.0
  0
LINE
 10
224.12214747707526
 20
-41.90983005625053
 30
0.0
 11
225.46009500260453
 21
-41.08993475811632
 31
0.0
  0
LINE
 10
225.46009500260453
 20
-41.08993475811632
 30
0.0
 11
226.9098300562505
 21
-40.489434837048464
 31
0.0
  0
LINE
 10
226.9098300562505
 20
-40.489434837048464
 30
0.0
 11
228.43565534959768
 21
-40.123116594048625
 31
0.0
  0
LINE
 10
228.43565534959768
 20
-40.123116594048625
 30
0.0
 11
230.0
 21
-40.0
 31
0.0
  0
LINE
 10
230.0
 20
-40.0
 30
0.0
 11
231.56434465040232
 21
-40.123116594048625
 31
0.0
  0
LINE
 10
231.56434465040232
 20
-40.123116594048625
 30
0.0
 11
233.0901699437495
 21
-40.489434837048464
 31
0.0
  0
LINE
 10
233.0901699437495
 20
-40.489434837048464
 30
0.0
 11
234.53990499739547
 21
-41.08993475811632
 31
0.0
  0
LINE
 10
234.53990499739547
 20
-41.08993475811632
 30
0.0
 11
235.87785252292474
 21
-41.90983005625053
 31
0.0
  0
LINE
 10
235.87785252292474
 20
-41.90983005625053
 30
0.0
 11
237.07106781186548
 21
-42.928932188134524
 31
0.0
  0
LINE
 10
237.07106781186548
 20
-42.928932188134524
 30
0.0
 11
238.09016994374946
 21
-44.122147477075266
 31
0.0
  0
LINE
 10
238.09016994374946
 20
-44.122147477075266
 30
0.0
 11
238.91006524188367
 21
-45.46009500260453
 31
0.0
  0
LINE
 10
238.91006524188367
 20
-45.46009500260453
 30
0.0
 11
239.51056516295154
 21
-46.90983005625053
 31
0.0
  0
LINE
 10
239.51056516295154
 20
-46.90983005625053
 30
0.0
 11
239.8768834059514
 21
-48.43565534959769
 31
0.0
  0
LINE
 10
239.8768834059514
 20
-48.43565534959769
 30
0.0
 11
240.0
 21
-50.0
 31
0.0
  0
LINE
 10
69.28932188134524
 20
-120.71067811865476
 30
0.0
 11
68.27021974946125
 21
-119.517462829714
 31
0.0
  0
LINE
 10
68.27021974946125
 20
-119.517462829714
 30
0.0
 11
67.45032445132705
 21
-118.17951530418475
 31
0.0
  0
LINE
 10
67.45032445132705
 20
-118.17951530418475
 30
0.0
 11
66.84982453025918
 21
-116.72978025053877
 31
0.0
  0
LINE
 10
66.84982453025918
 20
-116.72978025053877
 30
0.0
 11
66.48350628725935
 21
-115.20395495719158
 31
0.0
  0
LINE
 10
66.48350628725935
 20
-115.20395495719158
 30
0.0
 11
66.36038969321072
 21
-113.63961030678928
 31
0.0
  0
LINE
 10
66.36038969321072
 20
-113.63961030678928
 30
0.0
 11
66.48350628725935
 21
-112.07526565638697
 31
0.0
  0
LINE
 10
66.48350628725935
 20
-112.07526565638697
 30
0.0
 11
66.8498245302592
 21
-110.5494403630398
 31
0.0
  0
LINE
 10
66.8498245302592
 20
-110.5494403630398
 30
0.0
 11
67.45032445132705
 21
-109.09970530939381
 31
0.0
  0
LINE
 10
67.45032445132705
 20
-109.09970530939381
 30
0.0
 11
68.27021974946125
 21
-107.76175778386455
 31
0.0
  0
LINE
 10
68.27021974946125
 20
-107.76175778386455
 30
0.0
 11
69.28932188134524
 21
-106.5685424949238
 31
0.0
  0
LINE
 10
69.28932188134524
 20
-106.5685424949238
 30
0.0
 11
70.482537170286
 21
-105.5494403630398
 31
0.0
  0
LINE
 10
70.482537170286
 20
-105.5494403630398
 30
0.0
 11
71.82048469581525
 21
-104.72954506490561
 31
0.0
  0
LINE
 10
71.82048469581525
 20
-104.72954506490561
 30
0.0
 11
73.27021974946123
 21
-104.12904514383776
 31
0.0
  0
LINE
 10
73.27021974946123
 20
-104.12904514383776
 30
0.0
 11
74.79604504280842
 21
-103.7627269008379
 31
0.0
  0
LINE
 10
74.79604504280842
 20
-103.7627269008379
 30
0.0
 11
76.36038969321072
 21
-103.63961030678928
 31
0.0
  0
LINE
 10
76.36038969321072
 20
-103.63961030678928
 30
0.0
 11
77.92473434361303
 21
-103.7627269008379
 31
0.0
  0
LINE
 10
77.92473434361303
 20
-103.7627269008379
 30
0.0
 11
79.4505596369602
 21
-104.12904514383774
 31
0.0
  0
LINE
 10
79.4505596369602
 20
-104.12904514383774
 30
0.0
 11
80.90029469060619
 21
-104.72954506490561
 31
0.0
  0
LINE
 10
80.90029469060619
 20
-104.72954506490561
 30
0.0
 11
82.23824221613545
 21
-105.5494403630398
 31
0.0
  0
LINE
 10
82.23824221613545
 20
-105.5494403630398
 30
0.0
 11
83.4314575050762
 21
-106.5685424949238
 31
0.0
  0
LINE
 10
233.1
 20
-50.0
 30
0.0
 11
232.94827520051498
 21
-50.957952682562336
 31
0.0
  0
LINE
 10
232.94827520051498
 20
-50.957952682562336
 30
0.0
 11
232.50795268256235
 21
-51.82213428210667
 31
0.0
  0
LINE
 10
232.50795268256235
 20
-51.82213428210667
 30
0.0
 11
231.82213428210667
 21
-52.50795268256234
 31
0.0
  0
LINE
 10
231.82213428210667
 20
-52.50795268256234
 30
0.0
 11
230.95795268256234
 21
-52.94827520051498
 31
0.0
  0
LINE
 10
230.95795268256234
 20
-52.94827520051498
 30
0.0
 11
230.0
 21
-53.1
 31
0.0
  0
LINE
 10
230.0
 20
-53.1
 30
0.0
 11
229.04204731743766
 21
-52.94827520051498
 31
0.0
  0
LINE
 10
229.04204731743766
 20
-52.94827520051498
 30
0.0
 11
228.17786571789333
 21
-52.50795268256234
 31
0.0
  0
LINE
 10
228.17786571789333
 20
-52.50795268256234
 30
0.0
 11
227.49204731743765
 21
-51.82213428210667
 31
0.0
  0
LINE
 10
227.49204731743765
 20
-51.82213428210667
 30
0.0
 11
227.05172479948502
 21
-50.957952682562336
 31
0.0
  0
LINE
 10
227.05172479948502
 20
-50.957952682562336
 30
0.0
 11
226.9
 21
-50.0
 31
0.0
  0
LINE
 10
226.9
 20
-50.0
 30
0.0
 11
227.05172479948502
 21
-49.042047317437664
 31
0.0
  0
LINE
 10
227.05172479948502
 20
-49.042047317437664
 30
0.0
 11
227.49204731743765
 21
-48.17786571789333
 31
0.0
  0
LINE
 10
227.49204731743765
 20
-48.17786571789333
 30
0.0
 11
228.17786571789333
 21
-47.49204731743767
 31
0.0
  0
LINE
 10
228.17786571789333
 20
-47.49204731743767
 30
0.0
 11
229.04204731743766
 21
-47.05172479948502
 31
0.0
  0
LINE
 10
229.04204731743766
 20
-47.05172479948502
 30
0.0
 11
230.0
 21
-46.9
 31
0.0
  0
LINE
 10
230.0
 20
-46.9
 30
0.0
 11
230.95795268256234
 21
-47.05172479948502
 31
0.0
  0
LINE
 10
230.95795268256234
 20
-47.05172479948502
 30
0.0
 11
231.82213428210667
 21
-47.49204731743766
 31
0.0
  0
LINE
 10
231.82213428210667
 20
-47.49204731743766
 30
0.0
 11
232.50795268256235
 21
-48.17786571789333
 31
0.0
  0
LINE
 10
232.50795268256235
 20
-48.17786571789333
 30
0.0
 11
232.94827520051498
 21
-49.042047317437664
 31
0.0
  0
LINE
 10
232.94827520051498
 20
-49.042047317437664
 30
0.0
 11
233.1
 21
-50.0
 31
0.0
  0
LINE
 10
79.46038969321071
 20
-113.63961030678928
 30
0.0
 11
79.30866489372569
 21
-114.59756298935162
 31
0.0
  0
LINE
 10
79.30866489372569
 20
-114.59756298935162
 30
0.0
 11
78.86834237577305
 21
-115.46174458889594
 31
0.0
  0
LINE
 10
78.86834237577305
 20
-115.46174458889594
 30
0.0
 11
78.18252397531738
 21
-116.14756298935161
 31
0.0
  0
LINE
 10
78.18252397531738
 20
-116.14756298935161
 30
0.0
 11
77.31834237577306
 21
-116.58788550730425
 31
0.0
  0
LINE
 10
77.31834237577306
 20
-116.58788550730425
 30
0.0
 11
76.36038969321072
 21
-116.73961030678927
 31
0.0
  0
LINE
 10
76.36038969321072
 20
-116.73961030678927
 30
0.0
 11
75.40243701064838
 21
-116.58788550730425
 31
0.0
  0
LINE
 10
75.40243701064838
 20
-116.58788550730425
 30
0.0
 11
74.53825541110406
 21
-116.14756298935161
 31
0.0
  0
LINE
 10
74.53825541110406
 20
-116.14756298935161
 30
0.0
 11
73.85243701064839
 21
-115.46174458889595
 31
0.0
  0
LINE
 10
73.85243701064839
 20
-115.46174458889595
 30
0.0
 11
73.41211449269575
 21
-114.59756298935162
 31
0.0
  0
LINE
 10
73.41211449269575
 20
-114.59756298935162
 30
0.0
 11
73.26038969321073
 21
-113.63961030678928
 31
0.0
  0
LINE
 10
73.26038969321073
 20
-113.63961030678928
 30
0.0
 11
73.41211449269575
 21
-112.68165762422694
 31
0.0
  0
LINE
 10
73.41211449269575
 20
-112.68165762422694
 30
0.0
 11
73.85243701064839
 21
-111.81747602468262
 31
0.0
  0
LINE
 10
73.85243701064839
 20
-111.81747602468262
 30
0.0
 11
74.53825541110405
 21
-111.13165762422695
 31
0.0
  0
LINE
 10
74.53825541110405
 20
-111.13165762422695
 30
0.0
 11
75.40243701064838
 21
-110.69133510627431
 31
0.0
  0
LINE
 10
75.40243701064838
 20
-110.69133510627431
 30
0.0
 11
76.36038969321072
 21
-110.53961030678929
 31
0.0
  0
LINE
 10
76.36038969321072
 20
-110.53961030678929
 30
0.0
 11
77.31834237577306
 21
-110.69133510627431
 31
0.0
  0
LINE
 10
77.31834237577306
 20
-110.69133510627431
 30
0.0
 11
78.18252397531738
 21
-111.13165762422695
 31
0.0
  0
LINE
 10
78.18252397531738
 20
-111.13165762422695
 30
0.0
 11
78.86834237577305
 21
-111.8174760246826
 31
0.0
  0
LINE
 10
78.86834237577305
 20
-111.8174760246826
 30
0.0
 11
79.30866489372569
 21
-112.68165762422694
 31
0.0
  0
LINE
 10
79.30866489372569
 20
-112.68165762422694
 30
0.0
 11
79.46038969321071
 21
-113.63961030678928
 31
0.0
  0
ENDSEC
  0
EOF
